  0
SECTION
  2
HEADER
  9
$ACADVER
  1
AC1015
  9
$ACADMAINTVER
 70
     6
  9
$DWGCODEPAGE
  3
ANSI_1254
  9
$INSBASE
 10
0.0
 20
0.0
 30
0.0
  9
$EXTMIN
 10
0.0
 20
0.0
 30
0.0
  9
$EXTMAX
 10
279.4
 20
215.9
 30
0.0
  9
$LIMMIN
 10
0.0
 20
0.0
  9
$LIMMAX
 10
279.4
 20
215.9
  9
$ORTHOMODE
 70
     0
  9
$REGENMODE
 70
     1
  9
$FILLMODE
 70
     1
  9
$QTEXTMODE
 70
     0
  9
$MIRRTEXT
 70
     1
  9
$LTSCALE
 40
1.0
  9
$ATTMODE
 70
     1
  9
$TEXTSIZE
 40
3.5
  9
$TRACEWID
 40
1.0
  9
$TEXTSTYLE
  7
Standard
  9
$CLAYER
  8
0
  9
$CELTYPE
  6
ByLayer
  9
$CECOLOR
 62
   256
  9
$CELTSCALE
 40
1.0
  9
$DISPSILH
 70
     0
  9
$DIMSCALE
 40
1.0
  9
$DIMASZ
 40
3.5
  9
$DIMEXO
 40
1.0
  9
$DIMDLI
 40
3.75
  9
$DIMRND
 40
0.0
  9
$DIMDLE
 40
0.0
  9
$DIMEXE
 40
1.0
  9
$DIMTP
 40
0.0
  9
$DIMTM
 40
0.0
  9
$DIMTXT
 40
3.5
  9
$DIMCEN
 40
2.5
  9
$DIMTSZ
 40
0.0
  9
$DIMTOL
 70
     0
  9
$DIMLIM
 70
     0
  9
$DIMTIH
 70
     1
  9
$DIMTOH
 70
     1
  9
$DIMSE1
 70
     0
  9
$DIMSE2
 70
     0
  9
$DIMTAD
 70
     1
  9
$DIMZIN
 70
     0
  9
$DIMBLK
  1

  9
$DIMASO
 70
     1
  9
$DIMSHO
 70
     1
  9
$DIMPOST
  1

  9
$DIMAPOST
  1

  9
$DIMALT
 70
     0
  9
$DIMALTD
 70
     3
  9
$DIMALTF
 40
0.0393700787
  9
$DIMLFAC
 40
1.0
  9
$DIMTOFL
 70
     1
  9
$DIMTVP
 40
0.0
  9
$DIMTIX
 70
     0
  9
$DIMSOXD
 70
     0
  9
$DIMSAH
 70
     0
  9
$DIMBLK1
  1

  9
$DIMBLK2
  1

  9
$DIMSTYLE
  2
ISO-25
  9
$DIMCLRD
 70
     0
  9
$DIMCLRE
 70
     0
  9
$DIMCLRT
 70
     0
  9
$DIMTFAC
 40
1.0
  9
$DIMGAP
 40
1.524
  9
$DIMJUST
 70
     0
  9
$DIMSD1
 70
     0
  9
$DIMSD2
 70
     0
  9
$DIMTOLJ
 70
     0
  9
$DIMTZIN
 70
     0
  9
$DIMALTZ
 70
     0
  9
$DIMALTTZ
 70
     0
  9
$DIMUPT
 70
     0
  9
$DIMDEC
 70
     2
  9
$DIMTDEC
 70
     2
  9
$DIMALTU
 70
     2
  9
$DIMALTTD
 70
     3
  9
$DIMTXSTY
  7
Standard
  9
$DIMAUNIT
 70
     0
  9
$DIMADEC
 70
     2
  9
$DIMALTRND
 40
0.0
  9
$DIMAZIN
 70
     0
  9
$DIMDSEP
 70
    44
  9
$DIMATFIT
 70
     3
  9
$DIMFRAC
 70
     0
  9
$DIMLDRBLK
  1

  9
$DIMLUNIT
 70
     2
  9
$DIMLWD
 70
    -2
  9
$DIMLWE
 70
    -2
  9
$DIMTMOVE
 70
     0
  9
$LUNITS
 70
     2
  9
$LUPREC
 70
     2
  9
$SKETCHINC
 40
1.0
  9
$FILLETRAD
 40
10.0
  9
$AUNITS
 70
     0
  9
$AUPREC
 70
     2
  9
$MENU
  1
.
  9
$ELEVATION
 40
0.0
  9
$PELEVATION
 40
0.0
  9
$THICKNESS
 40
0.0
  9
$LIMCHECK
 70
     0
  9
$CHAMFERA
 40
0.0
  9
$CHAMFERB
 40
0.0
  9
$CHAMFERC
 40
0.0
  9
$CHAMFERD
 40
0.0
  9
$SKPOLY
 70
     0
  9
$TDCREATE
 40
2459935.699440382
  9
$TDUCREATE
 40
2459935.574440382
  9
$TDUPDATE
 40
2459935.699440567
  9
$TDUUPDATE
 40
2459935.574440567
  9
$TDINDWG
 40
0.0000000116
  9
$TDUSRTIMER
 40
0.0000000116
  9
$USRTIMER
 70
     1
  9
$ANGBASE
 50
0.0
  9
$ANGDIR
 70
     0
  9
$PDMODE
 70
     0
  9
$PDSIZE
 40
-1.0
  9
$PLINEWID
 40
0.0
  9
$SPLFRAME
 70
     0
  9
$SPLINETYPE
 70
     6
  9
$SPLINESEGS
 70
     8
  9
$HANDSEED
  5
ED
  9
$SURFTAB1
 70
     6
  9
$SURFTAB2
 70
     6
  9
$SURFTYPE
 70
     6
  9
$SURFU
 70
     6
  9
$SURFV
 70
     6
  9
$UCSBASE
  2

  9
$UCSNAME
  2

  9
$UCSORG
 10
0.0
 20
0.0
 30
0.0
  9
$UCSXDIR
 10
1.0
 20
0.0
 30
0.0
  9
$UCSYDIR
 10
0.0
 20
1.0
 30
0.0
  9
$UCSORTHOREF
  2

  9
$UCSORTHOVIEW
 70
     0
  9
$UCSORGTOP
 10
0.0
 20
0.0
 30
0.0
  9
$UCSORGBOTTOM
 10
0.0
 20
0.0
 30
0.0
  9
$UCSORGLEFT
 10
0.0
 20
0.0
 30
0.0
  9
$UCSORGRIGHT
 10
0.0
 20
0.0
 30
0.0
  9
$UCSORGFRONT
 10
0.0
 20
0.0
 30
0.0
  9
$UCSORGBACK
 10
0.0
 20
0.0
 30
0.0
  9
$PUCSBASE
  2

  9
$PUCSNAME
  2

  9
$PUCSORG
 10
0.0
 20
0.0
 30
0.0
  9
$PUCSXDIR
 10
1.0
 20
0.0
 30
0.0
  9
$PUCSYDIR
 10
0.0
 20
1.0
 30
0.0
  9
$PUCSORTHOREF
  2

  9
$PUCSORTHOVIEW
 70
     0
  9
$PUCSORGTOP
 10
0.0
 20
0.0
 30
0.0
  9
$PUCSORGBOTTOM
 10
0.0
 20
0.0
 30
0.0
  9
$PUCSORGLEFT
 10
0.0
 20
0.0
 30
0.0
  9
$PUCSORGRIGHT
 10
0.0
 20
0.0
 30
0.0
  9
$PUCSORGFRONT
 10
0.0
 20
0.0
 30
0.0
  9
$PUCSORGBACK
 10
0.0
 20
0.0
 30
0.0
  9
$USERI1
 70
     0
  9
$USERI2
 70
     0
  9
$USERI3
 70
     0
  9
$USERI4
 70
     0
  9
$USERI5
 70
     0
  9
$USERR1
 40
0.0
  9
$USERR2
 40
0.0
  9
$USERR3
 40
0.0
  9
$USERR4
 40
0.0
  9
$USERR5
 40
0.0
  9
$WORLDVIEW
 70
     1
  9
$SHADEDGE
 70
     3
  9
$SHADEDIF
 70
    70
  9
$TILEMODE
 70
     1
  9
$MAXACTVP
 70
    64
  9
$PINSBASE
 10
0.0
 20
0.0
 30
0.0
  9
$PLIMCHECK
 70
     0
  9
$PEXTMIN
 10
1.0000000000E+20
 20
1.0000000000E+20
 30
1.0000000000E+20
  9
$PEXTMAX
 10
-1.0000000000E+20
 20
-1.0000000000E+20
 30
-1.0000000000E+20
  9
$PLIMMIN
 10
0.0
 20
0.0
  9
$PLIMMAX
 10
420.0
 20
297.0
  9
$UNITMODE
 70
     0
  9
$VISRETAIN
 70
     1
  9
$PLINEGEN
 70
     0
  9
$PSLTSCALE
 70
     1
  9
$TREEDEPTH
 70
  3020
  9
$CMLSTYLE
  2
Standard
  9
$CMLJUST
 70
     0
  9
$CMLSCALE
 40
20.0
  9
$PROXYGRAPHICS
 70
     1
  9
$MEASUREMENT
 70
     1
  9
$CELWEIGHT
370
    -1
  9
$ENDCAPS
280
     0
  9
$JOINSTYLE
280
     0
  9
$LWDISPLAY
290
     1
  9
$INSUNITS
 70
     4
  9
$HYPERLINKBASE
  1

  9
$STYLESHEET
  1

  9
$XEDIT
290
     1
  9
$CEPSNTYPE
380
     0
  9
$PSTYLEMODE
290
     1
  9
$FINGERPRINTGUID
  2
{d503e099-acae-4f2e-9c6f-d687fbf9d014}
  9
$VERSIONGUID
  2
{FAEB1C32-E019-11D5-929B-00C0DF256EC4}
  9
$EXTNAMES
290
     1
  9
$PSVPSCALE
 40
0.0
  9
$OLESTARTUP
290
     0
  0
ENDSEC
  0
SECTION
  2
CLASSES
  0
CLASS
  1
ACDBDICTIONARYWDFLT
  2
AcDbDictionaryWithDefault
  3
ObjectDBX Classes
 90
        0
280
     0
281
     0
  0
CLASS
  1
VISUALSTYLE
  2
AcDbVisualStyle
  3
ObjectDBX Classes
 90
     4095
280
     0
281
     0
  0
CLASS
  1
MATERIAL
  2
AcDbMaterial
  3
ObjectDBX Classes
 90
     1153
280
     0
281
     0
  0
CLASS
  1
SCALE
  2
AcDbScale
  3
ObjectDBX Classes
 90
     1153
280
     0
281
     0
  0
CLASS
  1
TABLESTYLE
  2
AcDbTableStyle
  3
ObjectDBX Classes
 90
     4095
280
     0
281
     0
  0
CLASS
  1
MLEADERSTYLE
  2
AcDbMLeaderStyle
  3
ACDB_MLEADERSTYLE_CLASS
 90
     4095
280
     0
281
     0
  0
CLASS
  1
SUN
  2
AcDbSun
  3
SCENEOE
 90
     1153
280
     0
281
     0
  0
CLASS
  1
ACDBPLACEHOLDER
  2
AcDbPlaceHolder
  3
ObjectDBX Classes
 90
        0
280
     0
281
     0
  0
CLASS
  1
LAYOUT
  2
AcDbLayout
  3
ObjectDBX Classes
 90
        0
280
     0
281
     0
  0
ENDSEC
  0
SECTION
  2
TABLES
  0
TABLE
  2
VPORT
  5
8
330
0
100
AcDbSymbolTable
 70
     1
  0
VPORT
  5
29
330
8
100
AcDbSymbolTableRecord
100
AcDbViewportTableRecord
  2
*Active
 70
     0
 10
0.0
 20
0.0
 11
1.0
 21
1.0
 12
139.7
 22
107.95
 13
0.0
 23
0.0
 14
10.0
 24
10.0
 15
10.0
 25
10.0
 16
0.0
 26
0.0
 36
1.0
 17
0.0
 27
0.0
 37
0.0
 40
215.9
 41
1.2941176471
 42
50.0
 43
0.0
 44
0.0
 50
0.0
 51
0.0
 71
     0
 72
  2000
 73
     1
 74
     3
 75
     0
 76
     0
 77
     0
 78
     0
281
     0
 65
     1
110
0.0
120
0.0
130
0.0
111
1.0
121
0.0
131
0.0
112
0.0
122
1.0
132
0.0
 79
     0
146
0.0
  0
ENDTAB
  0
TABLE
  2
LTYPE
  5
5
330
0
100
AcDbSymbolTable
 70
     6
  0
LTYPE
  5
14
330
5
100
AcDbSymbolTableRecord
100
AcDbLinetypeTableRecord
  2
ByBlock
 70
     0
  3

 72
    65
 73
     0
 40
0.0
  0
LTYPE
  5
15
330
5
100
AcDbSymbolTableRecord
100
AcDbLinetypeTableRecord
  2
ByLayer
 70
     0
  3

 72
    65
 73
     0
 40
0.0
  0
LTYPE
  5
16
330
5
100
AcDbSymbolTableRecord
100
AcDbLinetypeTableRecord
  2
Continuous
 70
     0
  3
Solid line
 72
    65
 73
     0
 40
0.0
  0
LTYPE
  5
6E
330
5
100
AcDbSymbolTableRecord
100
AcDbLinetypeTableRecord
  2
HIDDEN
 70
     0
  3
Hidden __ __ __ __ __ __ __ __ __ __ __ __ __ __
 72
    65
 73
     2
 40
1.905
 49
1.27
 74
     0
 49
-0.635
 74
     0
  0
LTYPE
  5
6F
330
5
100
AcDbSymbolTableRecord
100
AcDbLinetypeTableRecord
  2
PHANTOM
 70
     0
  3
Phantom ______  __  __  ______  __  __  ______
 72
    65
 73
     6
 40
12.7
 49
6.35
 74
     0
 49
-1.27
 74
     0
 49
1.27
 74
     0
 49
-1.27
 74
     0
 49
1.27
 74
     0
 49
-1.27
 74
     0
  0
LTYPE
  5
70
330
5
100
AcDbSymbolTableRecord
100
AcDbLinetypeTableRecord
  2
CENTER
 70
     0
  3
Center ____ _ ____ _ ____ _ ____ _ ____ _ ____
 72
    65
 73
     4
 40
10.16
 49
6.35
 74
     0
 49
-1.27
 74
     0
 49
1.27
 74
     0
 49
-1.27
 74
     0
  0
LTYPE
  5
71
330
5
100
AcDbSymbolTableRecord
100
AcDbLinetypeTableRecord
  2
CENTERX2
 70
     0
  3
Center (2x) ________  __  ________  __  _____
 72
    65
 73
     4
 40
20.32
 49
12.7
 74
     0
 49
-2.54
 74
     0
 49
2.54
 74
     0
 49
-2.54
 74
     0
  0
LTYPE
  5
72
330
5
100
AcDbSymbolTableRecord
100
AcDbLinetypeTableRecord
  2
DOT2
 70
     0
  3
Dot (.5x) ........................................
 72
    65
 73
     2
 40
0.635
 49
0.0
 74
     0
 49
-0.635
 74
     0
  0
ENDTAB
  0
TABLE
  2
LAYER
  5
2
330
0
100
AcDbSymbolTable
 70
    17
  0
LAYER
  5
10
330
2
100
AcDbSymbolTableRecord
100
AcDbLayerTableRecord
  2
0
 70
     0
 62
     7
  6
Continuous
370
    -3
390
F
  0
LAYER
  5
73
330
2
100
AcDbSymbolTableRecord
100
AcDbLayerTableRecord
  2
FORMAT
 70
     0
 62
     7
  6
Continuous
370
    -3
390
F
  0
LAYER
  5
74
330
2
100
AcDbSymbolTableRecord
100
AcDbLayerTableRecord
  2
YARDIMCI_GEOMETRI
 70
     0
 62
    -6
  6
Continuous
290
     0
370
    -3
390
F
  0
LAYER
  5
75
330
2
100
AcDbSymbolTableRecord
100
AcDbLayerTableRecord
  2
SAYFA_CERCEVESI
 70
     0
 62
     7
  6
Continuous
370
    25
390
F
  0
LAYER
  5
76
330
2
100
AcDbSymbolTableRecord
100
AcDbLayerTableRecord
  2
ANTET
 70
     0
 62
     7
  6
Continuous
370
    -3
390
F
  0
LAYER
  5
77
330
2
100
AcDbSymbolTableRecord
100
AcDbLayerTableRecord
  2
OLCU
 70
     0
 62
   150
  6
Continuous
370
    -3
390
F
  0
LAYER
  5
78
330
2
100
AcDbSymbolTableRecord
100
AcDbLayerTableRecord
  2
METIN
 70
     0
 62
    96
  6
Continuous
370
    -3
390
F
  0
LAYER
  5
79
330
2
100
AcDbSymbolTableRecord
100
AcDbLayerTableRecord
  2
BALON
 70
     0
 62
     5
  6
Continuous
370
    -3
390
F
  0
LAYER
  5
7A
330
2
100
AcDbSymbolTableRecord
100
AcDbLayerTableRecord
  2
VURGU
 70
     0
 62
     7
  6
Continuous
370
    -3
390
F
  0
LAYER
  5
7B
330
2
100
AcDbSymbolTableRecord
100
AcDbLayerTableRecord
  2
SILIK
 70
     0
 62
     7
  6
Continuous
370
    -3
390
F
  0
LAYER
  5
7C
330
2
100
AcDbSymbolTableRecord
100
AcDbLayerTableRecord
  2
MODEL
 70
     0
 62
     7
  6
Continuous
370
    -3
390
F
  0
LAYER
  5
7D
330
2
100
AcDbSymbolTableRecord
100
AcDbLayerTableRecord
  2
DETAYLANDıRMA
 70
     0
 62
   190
  6
Continuous
370
    -3
390
F
  0
LAYER
  5
7E
330
2
100
AcDbSymbolTableRecord
100
AcDbLayerTableRecord
  2
TOLERANS
 70
     0
 62
   230
  6
Continuous
370
    -3
390
F
  0
LAYER
  5
7F
330
2
100
AcDbSymbolTableRecord
100
AcDbLayerTableRecord
  2
MERKEZ_CIZGILERI
 70
     0
 62
    30
  6
Continuous
370
    -3
390
F
  0
LAYER
  5
80
330
2
100
AcDbSymbolTableRecord
100
AcDbLayerTableRecord
  2
KESIT-DETAY_CIZGILERI
 70
     0
 62
     7
  6
Continuous
370
    -3
390
F
  0
LAYER
  5
81
330
2
100
AcDbSymbolTableRecord
100
AcDbLayerTableRecord
  2
\U+041E\U+0421\U+0415\U+0412\U+042B\U+0415
 70
     0
 62
     7
  6
Continuous
370
    -3
390
F
  0
LAYER
  5
82
330
2
100
AcDbSymbolTableRecord
100
AcDbLayerTableRecord
  2
\U+0412\U+041E\U+0414\U+042F\U+041D\U+042B\U+0415_\U+0417\U+041D\U+0410\U+041A\U+0418
 70
     0
 62
    11
  6
Continuous
370
    -3
390
F
  0
ENDTAB
  0
TABLE
  2
STYLE
  5
3
330
0
100
AcDbSymbolTable
 70
     1
  0
STYLE
  5
11
330
3
100
AcDbSymbolTableRecord
100
AcDbTextStyleTableRecord
  2
Standard
 70
     0
 40
0.0
 41
1.0
 50
0.0
 71
     0
 42
3.5
  3
txt
  4

  0
ENDTAB
  0
TABLE
  2
VIEW
  5
6
330
0
100
AcDbSymbolTable
 70
     0
  0
ENDTAB
  0
TABLE
  2
UCS
  5
7
330
0
100
AcDbSymbolTable
 70
     0
  0
ENDTAB
  0
TABLE
  2
APPID
  5
9
330
0
100
AcDbSymbolTable
 70
     1
  0
APPID
  5
12
330
9
100
AcDbSymbolTableRecord
100
AcDbRegAppTableRecord
  2
ACAD
 70
     0
  0
ENDTAB
  0
TABLE
  2
DIMSTYLE
  5
A
330
0
100
AcDbSymbolTable
 70
     1
100
AcDbDimStyleTable
  0
DIMSTYLE
105
27
330
A
100
AcDbSymbolTableRecord
100
AcDbDimStyleTableRecord
  2
ISO-25
 70
     0
 41
2.5
 42
0.625
 43
3.75
 44
1.25
 73
     0
 74
     0
 77
     1
 78
     8
140
2.5
141
2.5
143
0.0393700787
147
0.625
171
     3
172
     1
178
     0
271
     2
272
     2
274
     3
278
    44
283
     0
284
     8
340
11
  0
ENDTAB
  0
TABLE
  2
BLOCK_RECORD
  5
1
330
0
100
AcDbSymbolTable
 70
     5
  0
BLOCK_RECORD
  5
1F
330
1
100
AcDbSymbolTableRecord
100
AcDbBlockTableRecord
  2
*Model_Space
340
22
  0
BLOCK_RECORD
  5
1B
330
1
100
AcDbSymbolTableRecord
100
AcDbBlockTableRecord
  2
*Paper_Space
340
1E
  0
BLOCK_RECORD
  5
23
330
1
100
AcDbSymbolTableRecord
100
AcDbBlockTableRecord
  2
*Paper_Space0
340
26
  0
BLOCK_RECORD
  5
97
330
1
100
AcDbSymbolTableRecord
100
AcDbBlockTableRecord
  2
SW_CENTERMARKSYMBOL_0
340
0
102
{BLKREFS
331
A2
102
}
  0
BLOCK_RECORD
  5
AC
330
1
100
AcDbSymbolTableRecord
100
AcDbBlockTableRecord
  2
SW_CENTERMARKSYMBOL_1
340
0
102
{BLKREFS
331
B7
102
}
  0
BLOCK_RECORD
  5
BF
330
1
100
AcDbSymbolTableRecord
100
AcDbBlockTableRecord
  2
SW_CENTERMARKSYMBOL_2
340
0
102
{BLKREFS
331
CA
102
}
  0
BLOCK_RECORD
  5
D2
330
1
100
AcDbSymbolTableRecord
100
AcDbBlockTableRecord
  2
SW_CENTERMARKSYMBOL_3
340
0
102
{BLKREFS
331
DD
102
}
  0
ENDTAB
  0
ENDSEC
  0
SECTION
  2
BLOCKS
  0
BLOCK
  5
20
330
1F
100
AcDbEntity
  8
0
100
AcDbBlockBegin
  2
*Model_Space
 70
     0
 10
0.0
 20
0.0
 30
0.0
  3
*Model_Space
  1

  0
ENDBLK
  5
21
330
1F
100
AcDbEntity
  8
0
100
AcDbBlockEnd
  0
BLOCK
  5
1C
330
1B
100
AcDbEntity
 67
     1
  8
0
100
AcDbBlockBegin
  2
*Paper_Space
 70
     0
 10
0.0
 20
0.0
 30
0.0
  3
*Paper_Space
  1

  0
ENDBLK
  5
1D
330
1B
100
AcDbEntity
 67
     1
  8
0
100
AcDbBlockEnd
  0
BLOCK
  5
24
330
23
100
AcDbEntity
  8
0
100
AcDbBlockBegin
  2
*Paper_Space0
 70
     0
 10
0.0
 20
0.0
 30
0.0
  3
*Paper_Space0
  1

  0
ENDBLK
  5
25
330
23
100
AcDbEntity
  8
0
100
AcDbBlockEnd
  0
BLOCK
  5
98
330
97
100
AcDbEntity
  8
0
100
AcDbBlockBegin
  2
SW_CENTERMARKSYMBOL_0
 70
     0
 10
0.0
 20
0.0
 30
0.0
  3
SW_CENTERMARKSYMBOL_0
  1

  0
LINE
  5
9A
330
97
100
AcDbEntity
  8
FORMAT
 62
     0
100
AcDbLine
 10
0.0
 20
0.0
 30
0.0
 11
0.0
 21
2.5
 31
0.0
  0
LINE
  5
9B
330
97
100
AcDbEntity
  8
FORMAT
 62
     0
100
AcDbLine
 10
0.0
 20
0.0
 30
0.0
 11
-2.5
 21
0.0
 31
0.0
  0
LINE
  5
9C
330
97
100
AcDbEntity
  8
FORMAT
 62
     0
100
AcDbLine
 10
0.0
 20
0.0
 30
0.0
 11
0.0
 21
-2.5
 31
0.0
  0
LINE
  5
9D
330
97
100
AcDbEntity
  8
FORMAT
 62
     0
100
AcDbLine
 10
0.0
 20
0.0
 30
0.0
 11
2.5
 21
0.0
 31
0.0
  0
LINE
  5
9E
330
97
100
AcDbEntity
  8
FORMAT
 62
     0
100
AcDbLine
 10
0.0
 20
5.0
 30
0.0
 11
0.0
 21
160.0
 31
0.0
  0
LINE
  5
9F
330
97
100
AcDbEntity
  8
FORMAT
 62
     0
100
AcDbLine
 10
-5.0
 20
0.0
 30
0.0
 11
-160.0
 21
0.0
 31
0.0
  0
LINE
  5
A0
330
97
100
AcDbEntity
  8
FORMAT
 62
     0
100
AcDbLine
 10
0.0
 20
-5.0
 30
0.0
 11
0.0
 21
-160.0
 31
0.0
  0
LINE
  5
A1
330
97
100
AcDbEntity
  8
FORMAT
 62
     0
100
AcDbLine
 10
5.0
 20
0.0
 30
0.0
 11
160.0
 21
0.0
 31
0.0
  0
ENDBLK
  5
99
330
97
100
AcDbEntity
  8
0
100
AcDbBlockEnd
  0
BLOCK
  5
AD
330
AC
100
AcDbEntity
  8
0
100
AcDbBlockBegin
  2
SW_CENTERMARKSYMBOL_1
 70
     0
 10
0.0
 20
0.0
 30
0.0
  3
SW_CENTERMARKSYMBOL_1
  1

  0
LINE
  5
AF
330
AC
100
AcDbEntity
  8
FORMAT
 62
     0
100
AcDbLine
 10
0.0
 20
0.0
 30
0.0
 11
0.0
 21
2.5
 31
0.0
  0
LINE
  5
B0
330
AC
100
AcDbEntity
  8
FORMAT
 62
     0
100
AcDbLine
 10
0.0
 20
0.0
 30
0.0
 11
-2.5
 21
0.0
 31
0.0
  0
LINE
  5
B1
330
AC
100
AcDbEntity
  8
FORMAT
 62
     0
100
AcDbLine
 10
0.0
 20
0.0
 30
0.0
 11
0.0
 21
-2.5
 31
0.0
  0
LINE
  5
B2
330
AC
100
AcDbEntity
  8
FORMAT
 62
     0
100
AcDbLine
 10
0.0
 20
0.0
 30
0.0
 11
2.5
 21
0.0
 31
0.0
  0
LINE
  5
B3
330
AC
100
AcDbEntity
  8
FORMAT
 62
     0
100
AcDbLine
 10
0.0
 20
5.0
 30
0.0
 11
0.0
 21
160.0
 31
0.0
  0
LINE
  5
B4
330
AC
100
AcDbEntity
  8
FORMAT
 62
     0
100
AcDbLine
 10
-5.0
 20
0.0
 30
0.0
 11
-160.0
 21
0.0
 31
0.0
  0
LINE
  5
B5
330
AC
100
AcDbEntity
  8
FORMAT
 62
     0
100
AcDbLine
 10
0.0
 20
-5.0
 30
0.0
 11
0.0
 21
-160.0
 31
0.0
  0
LINE
  5
B6
330
AC
100
AcDbEntity
  8
FORMAT
 62
     0
100
AcDbLine
 10
5.0
 20
0.0
 30
0.0
 11
160.0
 21
0.0
 31
0.0
  0
ENDBLK
  5
AE
330
AC
100
AcDbEntity
  8
0
100
AcDbBlockEnd
  0
BLOCK
  5
C0
330
BF
100
AcDbEntity
  8
0
100
AcDbBlockBegin
  2
SW_CENTERMARKSYMBOL_2
 70
     0
 10
0.0
 20
0.0
 30
0.0
  3
SW_CENTERMARKSYMBOL_2
  1

  0
LINE
  5
C2
330
BF
100
AcDbEntity
  8
FORMAT
 62
     0
100
AcDbLine
 10
0.0
 20
0.0
 30
0.0
 11
0.0
 21
2.5
 31
0.0
  0
LINE
  5
C3
330
BF
100
AcDbEntity
  8
FORMAT
 62
     0
100
AcDbLine
 10
0.0
 20
0.0
 30
0.0
 11
-2.5
 21
0.0
 31
0.0
  0
LINE
  5
C4
330
BF
100
AcDbEntity
  8
FORMAT
 62
     0
100
AcDbLine
 10
0.0
 20
0.0
 30
0.0
 11
0.0
 21
-2.5
 31
0.0
  0
LINE
  5
C5
330
BF
100
AcDbEntity
  8
FORMAT
 62
     0
100
AcDbLine
 10
0.0
 20
0.0
 30
0.0
 11
2.5
 21
0.0
 31
0.0
  0
LINE
  5
C6
330
BF
100
AcDbEntity
  8
FORMAT
 62
     0
100
AcDbLine
 10
0.0
 20
5.0
 30
0.0
 11
0.0
 21
160.0
 31
0.0
  0
LINE
  5
C7
330
BF
100
AcDbEntity
  8
FORMAT
 62
     0
100
AcDbLine
 10
-5.0
 20
0.0
 30
0.0
 11
-160.0
 21
0.0
 31
0.0
  0
LINE
  5
C8
330
BF
100
AcDbEntity
  8
FORMAT
 62
     0
100
AcDbLine
 10
0.0
 20
-5.0
 30
0.0
 11
0.0
 21
-160.0
 31
0.0
  0
LINE
  5
C9
330
BF
100
AcDbEntity
  8
FORMAT
 62
     0
100
AcDbLine
 10
5.0
 20
0.0
 30
0.0
 11
160.0
 21
0.0
 31
0.0
  0
ENDBLK
  5
C1
330
BF
100
AcDbEntity
  8
0
100
AcDbBlockEnd
  0
BLOCK
  5
D3
330
D2
100
AcDbEntity
  8
0
100
AcDbBlockBegin
  2
SW_CENTERMARKSYMBOL_3
 70
     0
 10
0.0
 20
0.0
 30
0.0
  3
SW_CENTERMARKSYMBOL_3
  1

  0
LINE
  5
D5
330
D2
100
AcDbEntity
  8
FORMAT
 62
     0
100
AcDbLine
 10
0.0
 20
0.0
 30
0.0
 11
0.0
 21
2.5
 31
0.0
  0
LINE
  5
D6
330
D2
100
AcDbEntity
  8
FORMAT
 62
     0
100
AcDbLine
 10
0.0
 20
0.0
 30
0.0
 11
-2.5
 21
0.0
 31
0.0
  0
LINE
  5
D7
330
D2
100
AcDbEntity
  8
FORMAT
 62
     0
100
AcDbLine
 10
0.0
 20
0.0
 30
0.0
 11
0.0
 21
-2.5
 31
0.0
  0
LINE
  5
D8
330
D2
100
AcDbEntity
  8
FORMAT
 62
     0
100
AcDbLine
 10
0.0
 20
0.0
 30
0.0
 11
2.5
 21
0.0
 31
0.0
  0
LINE
  5
D9
330
D2
100
AcDbEntity
  8
FORMAT
 62
     0
100
AcDbLine
 10
0.0
 20
5.0
 30
0.0
 11
0.0
 21
160.0
 31
0.0
  0
LINE
  5
DA
330
D2
100
AcDbEntity
  8
FORMAT
 62
     0
100
AcDbLine
 10
-5.0
 20
0.0
 30
0.0
 11
-160.0
 21
0.0
 31
0.0
  0
LINE
  5
DB
330
D2
100
AcDbEntity
  8
FORMAT
 62
     0
100
AcDbLine
 10
0.0
 20
-5.0
 30
0.0
 11
0.0
 21
-160.0
 31
0.0
  0
LINE
  5
DC
330
D2
100
AcDbEntity
  8
FORMAT
 62
     0
100
AcDbLine
 10
5.0
 20
0.0
 30
0.0
 11
160.0
 21
0.0
 31
0.0
  0
ENDBLK
  5
D4
330
D2
100
AcDbEntity
  8
0
100
AcDbBlockEnd
  0
ENDSEC
  0
SECTION
  2
ENTITIES
  0
LINE
  5
83
330
1F
100
AcDbEntity
  8
0
  6
Continuous
 62
     7
370
    25
100
AcDbLine
 10
-73.6087159972
 20
65.9010442262
 30
0.0
 11
-73.6087159972
 21
-146.5989557738
 31
0.0
  0
LINE
  5
84
330
1F
100
AcDbEntity
  8
0
  6
Continuous
 62
     7
370
    25
100
AcDbLine
 10
241.3912840028
 20
-146.5989557738
 30
0.0
 11
241.3912840028
 21
65.9010442262
 31
0.0
  0
ARC
  5
85
330
1F
100
AcDbEntity
  8
0
  6
Continuous
 62
     7
370
    25
100
AcDbCircle
 10
241.3912840028
 20
65.9010442262
 30
0.0
 40
315.0
100
AcDbArc
 50
90.0
 51
180.0
  0
LINE
  5
86
330
1F
100
AcDbEntity
  8
0
  6
Continuous
 62
     7
370
    25
100
AcDbLine
 10
453.8912840028
 20
380.9010442262
 30
0.0
 11
241.3912840028
 21
380.9010442262
 31
0.0
  0
LINE
  5
87
330
1F
100
AcDbEntity
  8
0
  6
Continuous
 62
     7
370
    25
100
AcDbLine
 10
241.3912840028
 20
65.9010442262
 30
0.0
 11
453.8912840028
 21
65.9010442262
 31
0.0
  0
LINE
  5
88
330
1F
100
AcDbEntity
  8
0
  6
Continuous
 62
     7
370
    25
100
AcDbLine
 10
83.8912840028
 20
-146.5989557738
 30
0.0
 11
241.3912840028
 21
-146.5989557738
 31
0.0
  0
LINE
  5
89
330
1F
100
AcDbEntity
  8
0
  6
Continuous
 62
     7
370
    25
100
AcDbLine
 10
-73.6087159972
 20
-146.5989557738
 30
0.0
 11
83.8912840028
 21
-146.5989557738
 31
0.0
  0
LINE
  5
8A
330
1F
100
AcDbEntity
  8
0
  6
Continuous
 62
     7
370
    25
100
AcDbLine
 10
453.8912840028
 20
223.4010442262
 30
0.0
 11
453.8912840028
 21
65.9010442262
 31
0.0
  0
LINE
  5
8B
330
1F
100
AcDbEntity
  8
0
  6
Continuous
 62
     7
370
    25
100
AcDbLine
 10
453.8912840028
 20
380.9010442262
 30
0.0
 11
453.8912840028
 21
223.4010442262
 31
0.0
  0
LINE
  5
8C
330
1F
100
AcDbEntity
  8
0
  6
Continuous
 62
     1
370
    25
100
AcDbLine
 10
-73.6087159972
 20
65.9010442262
 30
0.0
 11
241.3912840028
 21
65.9010442262
 31
0.0
  0
LINE
  5
8D
330
1F
100
AcDbEntity
  8
0
  6
Continuous
 62
     1
370
    25
100
AcDbLine
 10
241.3912840028
 20
380.9010442262
 30
0.0
 11
241.3912840028
 21
65.9010442262
 31
0.0
  0
LINE
  5
8E
330
1F
100
AcDbEntity
  8
0
  6
Continuous
 62
     7
370
    25
100
AcDbLine
 10
-611.1452984579
 20
223.4010442262
 30
0.0
 11
-611.1452984579
 21
65.9010442262
 31
0.0
  0
LINE
  5
8F
330
1F
100
AcDbEntity
  8
0
  6
Continuous
 62
     7
370
    25
100
AcDbLine
 10
-296.1452984579
 20
65.9010442262
 30
0.0
 11
-296.1452984579
 21
223.4010442262
 31
0.0
  0
LINE
  5
90
330
1F
100
AcDbEntity
  8
0
  6
Continuous
 62
     7
370
    25
100
AcDbLine
 10
-611.1452984579
 20
65.9010442262
 30
0.0
 11
-611.1452984579
 21
-146.5989557738
 31
0.0
  0
LINE
  5
91
330
1F
100
AcDbEntity
  8
0
  6
Continuous
 62
     7
370
    25
100
AcDbLine
 10
-296.1452984579
 20
-146.5989557738
 30
0.0
 11
-296.1452984579
 21
65.9010442262
 31
0.0
  0
CIRCLE
  5
92
330
1F
100
AcDbEntity
  8
0
  6
Continuous
 62
     7
370
    25
100
AcDbCircle
 10
-453.6452984579
 20
223.4010442262
 30
0.0
 40
157.5000000000001
  0
CIRCLE
  5
93
330
1F
100
AcDbEntity
  8
0
  6
Continuous
 62
     7
370
    25
100
AcDbCircle
 10
-453.6452984579
 20
223.4010442262
 30
0.0
 40
128.9000000000001
  0
LINE
  5
94
330
1F
100
AcDbEntity
  8
0
  6
Continuous
 62
     7
370
    25
100
AcDbLine
 10
-611.1452984579
 20
-146.5989557738
 30
0.0
 11
-296.1452984579
 21
-146.5989557738
 31
0.0
  0
LINE
  5
95
330
1F
100
AcDbEntity
  8
0
  6
Continuous
 62
     1
370
    25
100
AcDbLine
 10
-453.6452984579
 20
65.9010442262
 30
0.0
 11
-296.1452984579
 21
65.9010442262
 31
0.0
  0
LINE
  5
96
330
1F
100
AcDbEntity
  8
0
  6
Continuous
 62
     1
370
    25
100
AcDbLine
 10
-611.1452984579
 20
65.9010442262
 30
0.0
 11
-453.6452984579
 21
65.9010442262
 31
0.0
  0
INSERT
  5
A2
330
1F
100
AcDbEntity
  8
FORMAT
 62
     7
100
AcDbBlockReference
  2
SW_CENTERMARKSYMBOL_0
 10
-453.6452984579
 20
223.4010442262
 30
0.0
  0
LINE
  5
A3
330
1F
100
AcDbEntity
  8
0
  6
Continuous
 62
     7
370
    25
100
AcDbLine
 10
453.8912840028
 20
893.8224521949
 30
0.0
 11
241.3912840028
 21
893.8224521949
 31
0.0
  0
LINE
  5
A4
330
1F
100
AcDbEntity
  8
0
  6
Continuous
 62
     7
370
    25
100
AcDbLine
 10
241.3912840028
 20
578.8224521949
 30
0.0
 11
453.8912840028
 21
578.8224521949
 31
0.0
  0
LINE
  5
A5
330
1F
100
AcDbEntity
  8
0
  6
Continuous
 62
     7
370
    25
100
AcDbLine
 10
241.3912840028
 20
893.8224521949
 30
0.0
 11
83.8912840028
 21
893.8224521949
 31
0.0
  0
LINE
  5
A6
330
1F
100
AcDbEntity
  8
0
  6
Continuous
 62
     7
370
    25
100
AcDbLine
 10
83.8912840028
 20
578.8224521949
 30
0.0
 11
241.3912840028
 21
578.8224521949
 31
0.0
  0
CIRCLE
  5
A7
330
1F
100
AcDbEntity
  8
0
  6
Continuous
 62
     7
370
    25
100
AcDbCircle
 10
83.8912840028
 20
736.3224521949
 30
0.0
 40
128.9000000000001
  0
CIRCLE
  5
A8
330
1F
100
AcDbEntity
  8
0
  6
Continuous
 62
     7
370
    25
100
AcDbCircle
 10
83.8912840028
 20
736.3224521949
 30
0.0
 40
157.5000000000001
  0
LINE
  5
A9
330
1F
100
AcDbEntity
  8
0
  6
Continuous
 62
     7
370
    25
100
AcDbLine
 10
453.8912840028
 20
893.8224521949
 30
0.0
 11
453.8912840028
 21
578.8224521949
 31
0.0
  0
LINE
  5
AA
330
1F
100
AcDbEntity
  8
0
  6
Continuous
 62
     1
370
    25
100
AcDbLine
 10
241.3912840028
 20
736.3224521949
 30
0.0
 11
241.3912840028
 21
578.8224521949
 31
0.0
  0
LINE
  5
AB
330
1F
100
AcDbEntity
  8
0
  6
Continuous
 62
     1
370
    25
100
AcDbLine
 10
241.3912840028
 20
893.8224521949
 30
0.0
 11
241.3912840028
 21
736.3224521949
 31
0.0
  0
INSERT
  5
B7
330
1F
100
AcDbEntity
  8
FORMAT
 62
     7
100
AcDbBlockReference
  2
SW_CENTERMARKSYMBOL_1
 10
83.8912840028
 20
736.3224521949
 30
0.0
  0
LINE
  5
B8
330
1F
100
AcDbEntity
  8
0
  6
Continuous
 62
     7
370
    25
100
AcDbLine
 10
692.3280187875
 20
65.9010442262
 30
0.0
 11
692.3280187875
 21
-146.5989557738
 31
0.0
  0
LINE
  5
B9
330
1F
100
AcDbEntity
  8
0
  6
Continuous
 62
     7
370
    25
100
AcDbLine
 10
1007.3280187875
 20
-146.5989557738
 30
0.0
 11
1007.3280187875
 21
65.9010442262
 31
0.0
  0
LINE
  5
BA
330
1F
100
AcDbEntity
  8
0
  6
Continuous
 62
     7
370
    25
100
AcDbLine
 10
1007.3280187875
 20
65.9010442262
 30
0.0
 11
1007.3280187875
 21
223.4010442262
 31
0.0
  0
LINE
  5
BB
330
1F
100
AcDbEntity
  8
0
  6
Continuous
 62
     7
370
    25
100
AcDbLine
 10
692.3280187875
 20
223.4010442262
 30
0.0
 11
692.3280187875
 21
65.9010442262
 31
0.0
  0
LINE
  5
BC
330
1F
100
AcDbEntity
  8
0
  6
Continuous
 62
     7
370
    25
100
AcDbLine
 10
692.3280187875
 20
-146.5989557738
 30
0.0
 11
1007.3280187875
 21
-146.5989557738
 31
0.0
  0
ARC
  5
BD
330
1F
100
AcDbEntity
  8
0
  6
Continuous
 62
     7
370
    25
100
AcDbCircle
 10
849.8280187875
 20
223.4010442262
 30
0.0
 40
157.5000000000001
100
AcDbArc
 50
0.0
 51
180.0
  0
LINE
  5
BE
330
1F
100
AcDbEntity
  8
0
  6
Continuous
 62
     1
370
    25
100
AcDbLine
 10
692.3280187875
 20
65.9010442262
 30
0.0
 11
1007.3280187875
 21
65.9010442262
 31
0.0
  0
INSERT
  5
CA
330
1F
100
AcDbEntity
  8
FORMAT
 62
     7
100
AcDbBlockReference
  2
SW_CENTERMARKSYMBOL_2
 10
849.8280187875
 20
223.4010442262
 30
0.0
  0
LINE
  5
CB
330
1F
100
AcDbEntity
  8
0
  6
Continuous
 62
     7
370
    25
100
AcDbLine
 10
83.8912840028
 20
-796.456790915
 30
0.0
 11
241.3912840028
 21
-796.456790915
 31
0.0
  0
LINE
  5
CC
330
1F
100
AcDbEntity
  8
0
  6
Continuous
 62
     7
370
    25
100
AcDbLine
 10
241.3912840028
 20
-481.456790915
 30
0.0
 11
83.8912840028
 21
-481.456790915
 31
0.0
  0
LINE
  5
CD
330
1F
100
AcDbEntity
  8
0
  6
Continuous
 62
     7
370
    25
100
AcDbLine
 10
453.8912840028
 20
-481.456790915
 30
0.0
 11
241.3912840028
 21
-481.456790915
 31
0.0
  0
LINE
  5
CE
330
1F
100
AcDbEntity
  8
0
  6
Continuous
 62
     7
370
    25
100
AcDbLine
 10
241.3912840028
 20
-796.456790915
 30
0.0
 11
453.8912840028
 21
-796.456790915
 31
0.0
  0
ARC
  5
CF
330
1F
100
AcDbEntity
  8
0
  6
Continuous
 62
     7
370
    25
100
AcDbCircle
 10
83.8912840028
 20
-638.956790915
 30
0.0
 40
157.5000000000001
100
AcDbArc
 50
90.0
 51
270.0
  0
LINE
  5
D0
330
1F
100
AcDbEntity
  8
0
  6
Continuous
 62
     7
370
    25
100
AcDbLine
 10
453.8912840028
 20
-481.456790915
 30
0.0
 11
453.8912840028
 21
-796.456790915
 31
0.0
  0
LINE
  5
D1
330
1F
100
AcDbEntity
  8
0
  6
Continuous
 62
     1
370
    25
100
AcDbLine
 10
241.3912840028
 20
-481.456790915
 30
0.0
 11
241.3912840028
 21
-796.456790915
 31
0.0
  0
INSERT
  5
DD
330
1F
100
AcDbEntity
  8
FORMAT
 62
     7
100
AcDbBlockReference
  2
SW_CENTERMARKSYMBOL_3
 10
83.8912840028
 20
-638.956790915
 30
0.0
  0
LINE
  5
DE
330
1F
100
AcDbEntity
  8
0
  6
Continuous
 62
     7
370
    25
100
AcDbLine
 10
994.0345564545
 20
-307.9023570652
 30
0.0
 11
843.7743654524
 21
-394.6457189464
 31
0.0
  0
LINE
  5
DF
330
1F
100
AcDbEntity
  8
0
  6
Continuous
 62
     7
370
    25
100
AcDbLine
 10
1001.2615658425
 20
-667.4511105963
 30
0.0
 11
1151.5217568447
 21
-580.7077487152
 31
0.0
  0
LINE
  5
E0
330
1F
100
AcDbEntity
  8
0
  6
Continuous
 62
     7
370
    25
100
AcDbLine
 10
653.6486476106
 20
-723.9457314494
 30
0.0
 11
653.6486476106
 21
-897.4606539751
 31
0.0
  0
LINE
  5
E1
330
1F
100
AcDbEntity
  8
0
  6
Continuous
 62
     7
370
    25
100
AcDbLine
 10
968.6486476106
 20
-897.4606539751
 30
0.0
 11
968.6486476106
 21
-723.9457314494
 31
0.0
  0
SPLINE
  5
E2
330
1F
100
AcDbEntity
  8
0
  6
Continuous
 62
     7
370
    25
100
AcDbSpline
210
0.0
220
0.0
230
1.0
 70
     8
 71
     3
 72
    48
 73
    44
 74
     0
 42
0.00000001
 43
0.00000001
 40
0.0
 40
0.0
 40
0.0
 40
0.0
 40
0.0162152305687465
 40
0.041168063909306
 40
0.0661671824024336
 40
0.0912670147100842
 40
0.1164395784143322
 40
0.141658492791787
 40
0.1668960650624362
 40
0.1921280463014925
 40
0.21733797435684
 40
0.2425132533042705
 40
0.2676451042928175
 40
0.2927283163444823
 40
0.3177608833546318
 40
0.3427435860687468
 40
0.3676795636502271
 40
0.3925739046569699
 40
0.4174332743608287
 40
0.4422655853615407
 40
0.4670797113792129
 40
0.491885239477797
 40
0.5166922531434769
 40
0.5415105419247201
 40
0.5663477256012127
 40
0.5912142994770638
 40
0.616120562932603
 40
0.6410764141475018
 40
0.666091117340815
 40
0.6911730317694524
 40
0.7163292932590763
 40
0.7415654415705203
 40
0.7668849914517639
 40
0.7922889526171453
 40
0.8177753148927291
 40
0.843338529697563
 40
0.8689690372147442
 40
0.8946529076225487
 40
0.9203716798384702
 40
0.9460942904652968
 40
0.9717925164859111
 40
0.9956623443617251
 40
1.0
 40
1.0
 40
1.0
 40
1.0
 10
843.7743654523679
 20
-394.6457189464066
 30
0.0
 10
841.9842631289928
 20
-395.6936033385538
 30
0.0
 10
837.4394589992911
 20
-398.3540262935395
 30
0.0
 10
830.2481448975273
 20
-402.8677159119291
 30
0.0
 10
822.2157966210623
 20
-408.2324908514675
 30
0.0
 10
814.2971066643556
 20
-413.8720682882719
 30
0.0
 10
806.4936255896594
 20
-419.7761380334808
 30
0.0
 10
798.8183567358681
 20
-425.9342553406109
 30
0.0
 10
791.2826778902736
 20
-432.3334051418312
 30
0.0
 10
783.8968463442335
 20
-438.9609427990284
 30
0.0
 10
776.6693268875202
 20
-445.8046234136896
 30
0.0
 10
769.6069781820594
 20
-452.8530402399932
 30
0.0
 10
762.7155491094777
 20
-460.0953846564364
 30
0.0
 10
755.9998355530104
 20
-467.5215461229918
 30
0.0
 10
749.4638522565853
 20
-475.1221416231693
 30
0.0
 10
743.111009130714
 20
-482.8885084502566
 30
0.0
 10
736.944277367319
 20
-490.8126679366428
 30
0.0
 10
730.9663388407887
 20
-498.8872724540283
 30
0.0
 10
725.1797155875445
 20
-507.1055437314633
 30
0.0
 10
719.5868792940686
 20
-515.4612084005204
 30
0.0
 10
714.1903424944848
 20
-523.9484342220642
 30
0.0
 10
708.9927341503152
 20
-532.5617685666372
 30
0.0
 10
703.9969025570472
 20
-541.2960093666493
 30
0.0
 10
699.2061066402073
 20
-550.1458703810849
 30
0.0
 10
694.6238355747703
 20
-559.1062547863992
 30
0.0
 10
690.2538115534717
 20
-568.1722798509812
 30
0.0
 10
686.099915751922
 20
-577.3395093086443
 30
0.0
 10
682.1664094615796
 20
-586.6035354250495
 30
0.0
 10
678.4579663089811
 20
-595.9598908998454
 30
0.0
 10
674.9796999429307
 20
-605.4039442190849
 30
0.0
 10
671.7371850007868
 20
-614.9307748821166
 30
0.0
 10
668.7364677394496
 20
-624.5350259024669
 30
0.0
 10
665.9840614886781
 20
-634.2107326991437
 30
0.0
 10
663.486919922964
 20
-643.9511304822269
 30
0.0
 10
661.2523829340664
 20
-653.7484462216885
 30
0.0
 10
659.2880788080345
 20
-663.5936882610567
 30
0.0
 10
657.6018077089835
 20
-673.4764490124954
 30
0.0
 10
656.2012834695857
 20
-683.3847599990877
 30
0.0
 10
655.094299040013
 20
-693.303926548912
 30
0.0
 10
654.2871751275951
 20
-703.2175422936808
 30
0.0
 10
653.7997867051844
 20
-712.8797219902061
 30
0.0
 10
653.6558625319517
 20
-719.7842225284996
 30
0.0
 10
653.6496092240528
 20
-723.3910804906271
 30
0.0
 10
653.648647610577
 20
-723.9457314494078
 30
0.0
  0
SPLINE
  5
E3
330
1F
100
AcDbEntity
  8
0
  6
Continuous
 62
     7
370
    25
100
AcDbSpline
210
0.0
220
0.0
230
1.0
 70
     8
 71
     3
 72
    41
 73
    37
 74
     0
 42
0.00000001
 43
0.00000001
 40
0.0
 40
0.0
 40
0.0
 40
0.0
 40
0.0223214702656343
 40
0.0541268155776847
 40
0.0851323998463545
 40
0.1155074833095837
 40
0.1454087351926838
 40
0.1749782549693694
 40
0.2043418744856577
 40
0.2336077686061776
 40
0.2628654428412672
 40
0.2921848349347473
 40
0.3215989627892058
 40
0.3511463829292635
 40
0.3808478106030883
 40
0.4107079008271234
 40
0.4407173925696571
 40
0.470855682383837
 40
0.5010937418587236
 40
0.531397291586768
 40
0.5617234404984636
 40
0.5920322678740866
 40
0.6222958268283688
 40
0.6524957579516681
 40
0.6826264527775471
 40
0.7126979117621475
 40
0.7427381673257021
 40
0.7727951515963024
 40
0.8029334164258803
 40
0.8332190767115478
 40
0.8637559402085582
 40
0.8946681078928087
 40
0.9260983900400046
 40
0.9582063697239432
 40
0.9911661008185438
 40
0.9999999999999999
 40
0.9999999999999999
 40
0.9999999999999999
 40
0.9999999999999999
 10
968.6482788697848
 20
-724.066804026826
 30
0.0
 10
968.6481656539088
 20
-724.0667951977723
 30
0.0
 10
968.6478911193567
 20
-724.0667737884045
 30
0.0
 10
968.669607916259
 20
-723.7248972269618
 30
0.0
 10
968.734235880099
 20
-723.0937849462786
 30
0.0
 10
968.8576518019559
 20
-722.1757413443955
 30
0.0
 10
969.0543720199735
 20
-720.996730984697
 30
0.0
 10
969.338094530179
 20
-719.5667071503943
 30
0.0
 10
969.7208468866806
 20
-717.9011684718686
 30
0.0
 10
970.213089813814
 20
-716.0159507943778
 30
0.0
 10
970.8234784620014
 20
-713.9290125104122
 30
0.0
 10
971.5584956321528
 20
-711.6607608269217
 30
0.0
 10
972.4222816267218
 20
-709.2338119758945
 30
0.0
 10
973.4164291254477
 20
-706.6728503757481
 30
0.0
 10
974.5400670326686
 20
-704.0038933644023
 30
0.0
 10
975.7894730216798
 20
-701.2547171455682
 30
0.0
 10
977.1579546686925
 20
-698.4545203579929
 30
0.0
 10
978.6358092040002
 20
-695.6334738870405
 30
0.0
 10
980.2103731875175
 20
-692.8221794593074
 30
0.0
 10
981.866044127557
 20
-690.0512700133835
 30
0.0
 10
983.584517768968
 20
-687.3507032365475
 30
0.0
 10
985.3452500269937
 20
-684.7488680236614
 30
0.0
 10
987.1260474757959
 20
-682.2717505468785
 30
0.0
 10
988.9035372183672
 20
-679.942458096978
 30
0.0
 10
990.6535285938094
 20
-677.7809785778761
 30
0.0
 10
992.3514702189638
 20
-675.8038878455682
 30
0.0
 10
993.9728681865192
 20
-674.0241850583808
 30
0.0
 10
995.4935360200427
 20
-672.4513521834037
 30
0.0
 10
996.8896095997213
 20
-671.0916643962769
 30
0.0
 10
998.1379426297318
 20
-669.9479746212065
 30
0.0
 10
999.2170536957733
 20
-669.0194113432175
 30
0.0
 10
1000.104500484391
 20
-668.3032795610324
 30
0.0
 10
1000.786912345504
 20
-667.7892704031527
 30
0.0
 10
1001.219561239274
 20
-667.4842696310972
 30
0.0
 10
1001.414736934112
 20
-667.3601959069838
 30
0.0
 10
1001.376868915021
 20
-667.3830950383186
 30
0.0
 10
1001.368864770354
 20
-667.387935216504
 30
0.0
  0
LWPOLYLINE
  5
E4
330
1F
100
AcDbEntity
  8
0
  6
Continuous
 62
     7
370
    25
100
AcDbPolyline
 90
      134
 70
   128
 43
0.0
 10
961.4088386127
 20
-380.0129140842
 10
961.533092861
 20
-386.1579500163
 10
961.9055783459
 20
-392.4327348717
 10
962.5254639067
 20
-398.8232671519
 10
963.3913663363
 20
-405.3152870805
 10
964.5013534679
 20
-411.8943084226
 10
965.8529484861
 20
-418.5456508088
 10
967.4431354539
 20
-425.2544724937
 10
969.2683660423
 20
-432.0058034726
 10
971.3245674483
 20
-438.7845788862
 10
973.6071514825
 20
-445.575672636
 10
976.1110248074
 20
-452.3639311363
 10
978.8306003024
 20
-459.134207128
 10
981.7598095313
 20
-465.871393478
 10
984.8921162828
 20
-472.5604568893
 10
988.2205311559
 20
-479.1864714458
 10
991.7376271554
 20
-485.734651918
 10
995.4355562649
 20
-492.1903867549
 10
999.3060669586
 20
-498.5392706876
 10
1003.3405226136
 20
-504.7671368737
 10
1007.5299207819
 20
-510.8600885083
 10
1011.864913278
 20
-516.8045298339
 10
1016.3358270385
 20
-522.5871964775
 10
1020.9326857065
 20
-528.1951850487
 10
1025.6452318931
 20
-533.615981932
 10
1030.4629500648
 20
-538.8374912101
 10
1035.3750900086
 20
-543.8480616539
 10
1040.3706908195
 20
-548.6365127216
 10
1045.4386053588
 20
-553.1921595064
 10
1050.5675251274
 20
-557.504836579
 10
1055.7460054997
 20
-561.5649206705
 10
1060.9624912613
 20
-565.3633521457
 10
1066.2053423925
 20
-568.8916552186
 10
1071.4628600424
 20
-572.1419568656
 10
1076.7233126334
 20
-575.1070043927
 10
1081.9749620388
 20
-577.7801816194
 10
1087.2060897751
 20
-580.1555236421
 10
1092.4050231511
 20
-582.2277301439
 10
1097.5601613132
 20
-583.9921772219
 10
1102.6600011327
 20
-585.4449277046
 10
1107.6931628726
 20
-586.5827399377
 10
1112.6484155811
 20
-587.4030750172
 10
1117.5147021517
 20
-587.9041024547
 10
1122.2811639963
 20
-588.0847042621
 10
1126.9371652747
 20
-587.9444774461
 10
1131.4723166275
 20
-587.4837349077
 10
1135.8764983586
 20
-586.7035047436
 10
1140.1398830164
 20
-585.6055279524
 10
1144.2529573227
 20
-584.1922545496
 10
1148.2065434005
 20
-582.4668381007
 10
1151.9918192532
 20
-580.4331286847
 10
1155.6003384503
 20
-578.0956643024
 10
1159.0240489744
 20
-575.4596607508
 10
1162.2553111886
 20
-572.5309999847
 10
1165.2869148835
 20
-569.3162169913
 10
1168.1120953656
 20
-565.8224852086
 10
1170.7245485528
 20
-562.0576005183
 10
1173.1184450404
 20
-558.0299638503
 10
1175.2884431092
 20
-553.7485624369
 10
1177.229700645
 20
-549.2229497588
 10
1178.9378859433
 20
-544.4632242275
 10
1180.4091873746
 20
-539.4800066518
 10
1181.6403218902
 20
-534.2844165387
 10
1182.6285423475
 20
-528.8880472813
 10
1183.3716436404
 20
-523.3029402895
 10
1183.8679676192
 20
-517.541558121
 10
1184.116406791
 20
-511.6167566722
 10
1184.116406791
 20
-505.5417564918
 10
1183.8679676192
 20
-499.3301132807
 10
1183.3716436404
 20
-492.9956876438
 10
1182.6285423475
 20
-486.5526141616
 10
1181.6403218902
 20
-480.0152698505
 10
1180.4091873746
 20
-473.3982420819
 10
1178.9378859433
 20
-466.716296032
 10
1177.229700645
 20
-459.9843417354
 10
1175.2884431092
 20
-453.2174008144
 10
1173.1184450404
 20
-446.4305729603
 10
1170.7245485528
 20
-439.6390022398
 10
1168.1120953656
 20
-432.8578433028
 10
1165.2869148835
 20
-426.1022275665
 10
1162.2553111886
 20
-419.3872294512
 10
1159.0240489744
 20
-412.7278327435
 10
1155.6003384503
 20
-406.1388971613
 10
1151.9918192532
 20
-399.6351251964
 10
1148.2065434005
 20
-393.2310293071
 10
1144.2529573227
 20
-386.9408995356
 10
1140.1398830164
 20
-380.7787716209
 10
1135.8764983586
 20
-374.7583956799
 10
1131.4723166275
 20
-368.8932055255
 10
1126.9371652747
 20
-363.1962886903
 10
1122.2811639963
 20
-357.6803572234
 10
1117.5147021517
 20
-352.3577193248
 10
1112.6484155811
 20
-347.2402518809
 10
1107.6931628726
 20
-342.3393739626
 10
1102.6600011327
 20
-337.6660213449
 10
1097.5601613132
 20
-333.2306221048
 10
1092.4050231511
 20
-329.0430733525
 10
1087.2060897751
 20
-325.1127191466
 10
1081.9749620388
 20
-321.4483296442
 10
1076.7233126334
 20
-318.0580815312
 10
1071.4628600424
 20
-314.9495397767
 10
1066.2053423925
 20
-312.1296407529
 10
1060.9624912613
 20
-309.6046767572
 10
1055.7460054997
 20
-307.3802819715
 10
1050.5675251274
 20
-305.4614198905
 10
1045.4386053588
 20
-303.8523722458
 10
1040.3706908195
 20
-302.5567294518
 10
1035.3750900086
 20
-301.5773825942
 10
1030.4629500648
 20
-300.9165169788
 10
1025.6452318931
 20
-300.5756072552
 10
1020.9326857065
 20
-300.5554141263
 10
1016.3358270385
 20
-300.8559826509
 10
1011.864913278
 20
-301.4766421431
 10
1007.5299207819
 20
-302.4160076688
 10
1003.3405226136
 20
-303.6719831362
 10
999.3060669586
 20
-305.241765973
 10
995.4355562649
 20
-307.1218533799
 10
991.7376271554
 20
-309.3080501466
 10
988.2205311559
 20
-311.7954780133
 10
984.8921162828
 20
-314.5785865559
 10
981.7598095313
 20
-317.6511655709
 10
978.8306003024
 20
-321.006358933
 10
976.1110248074
 20
-324.636679894
 10
973.6071514825
 20
-328.5340277882
 10
971.3245674483
 20
-332.6897061085
 10
969.2683660423
 20
-337.0944419116
 10
967.4431354539
 20
-341.7384065096
 10
965.8529484861
 20
-346.6112374016
 10
964.5013534679
 20
-351.7020613965
 10
963.3913663363
 20
-356.9995188752
 10
962.5254639067
 20
-362.4917891388
 10
961.9055783459
 20
-368.1666167847
 10
961.533092861
 20
-374.0113390534
 10
961.4088386127
 20
-380.0129140842
  0
LWPOLYLINE
  5
E5
330
1F
100
AcDbEntity
  8
0
  6
Continuous
 62
     7
370
    25
100
AcDbPolyline
 90
      121
 70
   128
 43
0.0
 10
981.6320925547
 20
-391.6875500832
 10
981.7570050678
 20
-386.2511906846
 10
982.1314002305
 20
-380.9739528869
 10
982.7542518519
 20
-375.8703012323
 10
983.6238527388
 20
-370.9542244751
 10
984.7378193757
 20
-366.2391972401
 10
986.0930984574
 20
-361.7381430891
 10
987.6859752583
 20
-357.4633990988
 10
989.5120838137
 20
-353.4266820451
 10
991.5664188869
 20
-349.6390562891
 10
993.8433496884
 20
-346.1109034496
 10
996.3366353091
 20
-342.8518939484
 10
999.0394418264
 20
-339.8709605038
 10
1001.9443610355
 20
-337.1762736474
 10
1005.0434307548
 20
-334.7752193285
 10
1008.3281566496
 20
-332.67437867
 10
1011.7895355145
 20
-330.8795099302
 10
1015.4180799507
 20
-329.3955327196
 10
1019.2038443701
 20
-328.2265145164
 10
1023.1364522555
 20
-327.3756595185
 10
1027.2051246021
 20
-326.8452998601
 10
1031.3987094618
 20
-326.6368892202
 10
1035.70571251
 20
-326.750998838
 10
1040.1143285508
 20
-327.1873159468
 10
1044.6124738739
 20
-327.9446446318
 10
1049.1878193757
 20
-329.0209091077
 10
1053.8278243522
 20
-330.4131594085
 10
1058.5197708724
 20
-332.1175794728
 10
1063.2507986369
 20
-334.1294976036
 10
1068.0079402274
 20
-336.4433992733
 10
1072.7781566496
 20
-339.0529422381
 10
1077.5483730718
 20
-341.9509739223
 10
1082.3055146623
 20
-345.1295510224
 10
1087.0365424268
 20
-348.5799612795
 10
1091.728488947
 20
-352.2927473589
 10
1096.3684939235
 20
-356.2577327721
 10
1100.9438394253
 20
-360.4640497697
 10
1105.4419847484
 20
-364.900169129
 10
1109.8506007891
 20
-369.5539317554
 10
1114.1576038374
 20
-374.412582009
 10
1118.3511886971
 20
-379.4628026671
 10
1122.4198610437
 20
-384.6907514259
 10
1126.3524689291
 20
-390.0820988412
 10
1130.1382333485
 20
-395.6220676047
 10
1133.7667777847
 20
-401.2954730469
 10
1137.2281566496
 20
-407.0867647578
 10
1140.5128825444
 20
-412.9800692096
 10
1143.6119522637
 20
-418.9592332642
 10
1146.5168714728
 20
-425.0078684487
 10
1149.2196779901
 20
-431.1093958744
 10
1151.7129636108
 20
-437.2470916787
 10
1153.9898944123
 20
-443.4041328641
 10
1156.0442294855
 20
-449.5636434087
 10
1157.8703380409
 20
-455.7087405223
 10
1159.4632148418
 20
-461.8225809206
 10
1160.8184939235
 20
-467.8884069923
 10
1161.9324605604
 20
-473.8895927296
 10
1162.8020614473
 20
-479.8096892997
 10
1163.4249130687
 20
-485.6324701292
 10
1163.7993082314
 20
-491.3419753807
 10
1163.9242207445
 20
-496.9225556972
 10
1163.7993082314
 20
-502.3589150958
 10
1163.4249130687
 20
-507.6361528935
 10
1162.8020614473
 20
-512.7398045481
 10
1161.9324605604
 20
-517.6558813053
 10
1160.8184939235
 20
-522.3709085403
 10
1159.4632148418
 20
-526.8719626913
 10
1157.8703380409
 20
-531.1467066817
 10
1156.0442294855
 20
-535.1834237353
 10
1153.9898944123
 20
-538.9710494913
 10
1151.7129636108
 20
-542.4992023308
 10
1149.2196779901
 20
-545.758211832
 10
1146.5168714728
 20
-548.7391452766
 10
1143.6119522637
 20
-551.433832133
 10
1140.5128825444
 20
-553.8348864519
 10
1137.2281566496
 20
-555.9357271104
 10
1133.7667777847
 20
-557.7305958502
 10
1130.1382333485
 20
-559.2145730608
 10
1126.3524689291
 20
-560.383591264
 10
1122.4198610437
 20
-561.2344462619
 10
1118.3511886971
 20
-561.7648059203
 10
1114.1576038374
 20
-561.9732165602
 10
1109.8506007891
 20
-561.8591069424
 10
1105.4419847484
 20
-561.4227898336
 10
1100.9438394253
 20
-560.6654611486
 10
1096.3684939235
 20
-559.5891966727
 10
1091.728488947
 20
-558.1969463719
 10
1087.0365424268
 20
-556.4925263076
 10
1082.3055146623
 20
-554.4806081768
 10
1077.5483730718
 20
-552.1667065071
 10
1072.7781566496
 20
-549.5571635423
 10
1068.0079402274
 20
-546.6591318581
 10
1063.2507986369
 20
-543.480554758
 10
1058.5197708724
 20
-540.0301445009
 10
1053.8278243522
 20
-536.3173584215
 10
1049.1878193757
 20
-532.3523730083
 10
1044.6124738739
 20
-528.1460560107
 10
1040.1143285508
 20
-523.7099366514
 10
1035.70571251
 20
-519.056174025
 10
1031.3987094618
 20
-514.1975237714
 10
1027.2051246021
 20
-509.1473031133
 10
1023.1364522555
 20
-503.9193543545
 10
1019.2038443701
 20
-498.5280069392
 10
1015.4180799507
 20
-492.9880381757
 10
1011.7895355145
 20
-487.3146327335
 10
1008.3281566496
 20
-481.5233410226
 10
1005.0434307548
 20
-475.6300365708
 10
1001.9443610355
 20
-469.6508725162
 10
999.0394418264
 20
-463.6022373317
 10
996.3366353091
 20
-457.500709906
 10
993.8433496884
 20
-451.3630141017
 10
991.5664188869
 20
-445.2059729163
 10
989.5120838137
 20
-439.0464623717
 10
987.6859752583
 20
-432.9013652581
 10
986.0930984574
 20
-426.7875248598
 10
984.7378193757
 20
-420.7216987881
 10
983.6238527388
 20
-414.7205130508
 10
982.7542518519
 20
-408.8004164807
 10
982.1314002305
 20
-402.9776356512
 10
981.7570050678
 20
-397.2681303997
 10
981.6320925547
 20
-391.6875500832
  0
LWPOLYLINE
  5
E6
330
1F
100
AcDbEntity
  8
0
  6
Continuous
 62
     7
370
    25
100
AcDbPolyline
 90
      134
 70
   128
 43
0.0
 10
699.7793295737
 20
-833.1685151691
 10
705.1629357461
 20
-830.2040863804
 10
710.7830374844
 20
-827.389733293
 10
716.6270941443
 20
-824.7317358288
 10
722.6820653499
 20
-822.2360250198
 10
728.9344400931
 20
-819.9081697724
 10
735.3702668809
 20
-817.7533644422
 10
741.9751848671
 20
-815.7764172422
 10
748.7344558971
 20
-813.9817395148
 10
755.6329973943
 20
-812.3733358877
 10
762.6554160149
 20
-810.9547953384
 10
769.7860419972
 20
-809.7292831854
 10
777.0089641263
 20
-808.6995340257
 10
784.3080652387
 20
-807.8678456321
 10
791.6670581857
 20
-807.2360738269
 10
799.0695221763
 20
-806.8056283398
 10
806.4989394191
 20
-806.5774696631
 10
813.938731979
 20
-806.5521069079
 10
821.3722987696
 20
-806.7295966686
 10
828.7830525968
 20
-807.1095428961
 10
836.1544571711
 20
-807.6910977817
 10
843.4700640064
 20
-808.4729636492
 10
850.7135491233
 20
-809.45339585
 10
857.8687494741
 20
-810.6302066565
 10
864.9196990091
 20
-812.0007701437
 10
871.8506643027
 20
-813.5620280484
 10
878.6461796611
 20
-815.3104965939
 10
885.2910816325
 20
-817.2422742631
 10
891.7705428422
 20
-819.3530505046
 10
898.0701050786
 20
-821.6381153514
 10
904.1757115552
 20
-824.0923699301
 10
910.0737382763
 20
-826.7103378392
 10
915.7510244383
 20
-829.4861773687
 10
921.1949017956
 20
-832.413694535
 10
926.3932229292
 20
-835.4863569026
 10
931.334388352
 20
-838.6973081604
 10
936.0073723919
 20
-842.0393834205
 10
940.4017477942
 20
-845.5051252062
 10
944.507708989
 20
-849.0868000924
 10
948.3160939715
 20
-852.7764159619
 10
951.8184047455
 20
-856.5657398389
 10
955.0068262863
 20
-860.4463162603
 10
957.8742439787
 20
-864.4094861425
 10
960.4142594924
 20
-868.4464061039
 10
962.6212050598
 20
-872.5480681976
 10
964.4901561223
 20
-876.7053200115
 10
966.0169423193
 20
-880.9088850913
 10
967.1981567938
 20
-885.1493836396
 10
968.0311637943
 20
-889.417353446
 10
968.5141045566
 20
-893.7032710009
 10
968.6459014509
 20
-897.9975727466
 10
968.4262603869
 20
-902.2906764165
 10
967.8556714697
 20
-906.5730024177
 10
966.9354079062
 20
-910.8349952063
 10
965.6675231643
 20
-915.0671446101
 10
964.0548463907
 20
-919.2600070486
 10
962.1009760978
 20
-923.4042266065
 10
959.8102721341
 20
-927.4905559092
 10
957.1878459561
 20
-931.5098767584
 10
954.239549222
 20
-935.4532204775
 10
950.9719607345
 20
-939.3117879247
 10
947.3923717613
 20
-943.0769691274
 10
943.5087697651
 20
-946.740362494
 10
939.3298205806
 20
-950.2937935614
 10
934.8648490775
 20
-953.7293332353
 10
930.1238183529
 20
-957.0393154835
 10
925.1173075005
 20
-960.2163544413
 10
919.8564880035
 20
-963.2533608924
 10
914.3530988073
 20
-966.143558088
 10
908.6194201252
 20
-968.8804968679
 10
902.6682460364
 20
-971.4580700515
 10
896.5128559372
 20
-973.8705260651
 10
890.1669849098
 20
-976.1124817761
 10
883.644793074
 20
-978.1789345046
 10
876.96083399
 20
-980.0652731866
 10
870.1300221841
 20
-981.7672886628
 10
863.1675998685
 20
-983.2811830713
 10
856.0891029298
 20
-984.6035783215
 10
848.9103262625
 20
-985.7315236326
 10
841.6472885245
 20
-986.6625021176
 10
834.316196393
 20
-987.3944363994
 10
826.933408401
 20
-987.9256932465
 10
819.5153984356
 20
-988.2550872171
 10
812.0787189774
 20
-988.3818833044
 10
804.6399641664
 20
-988.3057985768
 10
797.2157327732
 20
-988.027002809
 10
789.822591161
 20
-987.5461181036
 10
782.4770363198
 20
-986.8642175021
 10
775.1954590546
 20
-985.9828225916
 10
767.9941074116
 20
-984.9039001088
 10
760.8890504222
 20
-983.6298575514
 10
753.8961422468
 20
-982.1635378068
 10
747.0309867979
 20
-980.5082128076
 10
740.3089029217
 20
-978.6675762312
 10
733.7448902158
 20
-976.6457352574
 10
727.3535955594
 20
-974.4472014042
 10
721.1492804299
 20
-972.0768804601
 10
715.1457890803
 20
-969.5400615381
 10
709.3565176475
 20
-966.8424052731
 10
703.7943842596
 20
-963.9899311911
 10
698.4718002113
 20
-960.9890042772
 10
693.4006422687
 20
-957.8463207727
 10
688.5922261682
 20
-954.5688932334
 10
684.0572813662
 20
-951.1640348817
 10
679.8059270981
 20
-947.639343288
 10
675.8476497973
 20
-944.0026834174
 10
672.1912819285
 20
-940.2621700801
 10
668.844982278
 20
-936.426149824
 10
665.8162177488
 20
-932.5031823103
 10
663.111746699
 20
-928.5020212134
 10
660.7376038609
 20
-924.4315946883
 10
658.6990868756
 20
-920.3009854483
 10
657.0007444715
 20
-916.1194104976
 10
655.6463663147
 20
-911.8962005652
 10
654.6389745524
 20
-907.6407792836
 10
653.9808170695
 20
-903.3626421619
 10
653.6733624728
 20
-899.0713353967
 10
653.7172968137
 20
-894.7764345714
 10
654.1125220574
 20
-890.4875232892
 10
654.858156302
 20
-886.2141717882
 10
655.9525357458
 20
-881.9659155866
 10
657.3932184004
 20
-877.7522342052
 10
659.1769895395
 20
-873.5825300147
 10
661.2998688721
 20
-869.4661072556
 10
663.7571194244
 20
-865.4121512768
 10
666.5432581095
 20
-861.4297080392
 10
669.6520679626
 20
-857.5276639309
 10
673.0766120133
 20
-853.7147259381
 10
676.8092487647
 20
-849.9994022164
 10
680.8416492447
 20
-846.3899831059
 10
685.1648155911
 20
-842.8945226318
 10
689.7691011293
 20
-839.5208205333
 10
694.6442318978
 20
-836.2764048591
 10
699.7793295737
 20
-833.1685151691
  0
LWPOLYLINE
  5
E7
330
1F
100
AcDbEntity
  8
0
  6
Continuous
 62
     7
370
    25
100
AcDbPolyline
 90
      121
 70
   128
 43
0.0
 10
720.0025835156
 20
-844.8431511682
 10
715.3572796065
 20
-847.6690489516
 10
710.9745331788
 20
-850.6314220634
 10
706.8663570356
 20
-853.7221508448
 10
703.0440114024
 20
-856.9327638231
 10
699.5179730628
 20
-860.2544609312
 10
696.2979066427
 20
-863.6781376283
 10
693.3926381204
 20
-867.1944098545
 10
690.8101306351
 20
-870.7936397521
 10
688.5574626601
 20
-874.465962082
 10
686.6408086019
 20
-878.2013112641
 10
685.065421876
 20
-881.9894489658
 10
683.8356205079
 20
-885.8199921651
 10
682.9547752976
 20
-889.6824416093
 10
682.4253005807
 20
-893.5662105929
 10
682.2486476106
 20
-897.4606539751
 10
682.4253005807
 20
-901.3550973574
 10
682.9547752976
 20
-905.238866341
 10
683.8356205079
 20
-909.1013157851
 10
685.065421876
 20
-912.9318589844
 10
686.6408086019
 20
-916.7199966862
 10
688.5574626601
 20
-920.4553458683
 10
690.8101306351
 20
-924.1276681982
 10
693.3926381204
 20
-927.7268980958
 10
696.2979066427
 20
-931.243170322
 10
699.5179730628
 20
-934.666847019
 10
703.0440114024
 20
-937.9885441272
 10
706.8663570356
 20
-941.1991571054
 10
710.9745331788
 20
-944.2898858869
 10
715.3572796065
 20
-947.2522589987
 10
720.0025835156
 20
-950.0781567821
 10
724.8977124509
 20
-952.7598336477
 10
730.0292492043
 20
-955.2899393057
 10
735.3831285901
 20
-957.6615389122
 10
740.9446759971
 20
-959.8681320776
 10
746.6986476106
 20
-961.9036706834
 10
752.6292721942
 20
-963.7625754598
 10
758.7202943181
 20
-965.439751278
 10
764.9550189142
 20
-966.9306011157
 10
771.3163570356
 20
-968.231038657
 10
777.7868726969
 20
-969.3374994932
 10
784.3488306642
 20
-970.2469508918
 10
790.9842450669
 20
-970.9569001099
 10
797.6749286954
 20
-971.4654012261
 10
804.4025428509
 20
-971.771060474
 10
811.1486476106
 20
-971.873040063
 10
817.8947523703
 20
-971.771060474
 10
824.6223665258
 20
-971.4654012261
 10
831.3130501543
 20
-970.9569001099
 10
837.948464557
 20
-970.2469508918
 10
844.5104225243
 20
-969.3374994932
 10
850.9809381855
 20
-968.231038657
 10
857.342276307
 20
-966.9306011157
 10
863.577000903
 20
-965.439751278
 10
869.668023027
 20
-963.7625754598
 10
875.5986476106
 20
-961.9036706834
 10
881.352619224
 20
-959.8681320776
 10
886.9141666311
 20
-957.6615389122
 10
892.2680460169
 20
-955.2899393057
 10
897.3995827702
 20
-952.7598336477
 10
902.2947117055
 20
-950.0781567821
 10
906.9400156146
 20
-947.2522589987
 10
911.3227620424
 20
-944.2898858869
 10
915.4309381855
 20
-941.1991571054
 10
919.2532838187
 20
-937.9885441272
 10
922.7793221584
 20
-934.666847019
 10
925.9993885785
 20
-931.243170322
 10
928.9046571007
 20
-927.7268980958
 10
931.4871645861
 20
-924.1276681982
 10
933.739832561
 20
-920.4553458683
 10
935.6564866192
 20
-916.7199966862
 10
937.2318733452
 20
-912.9318589844
 10
938.4616747133
 20
-909.1013157851
 10
939.3425199235
 20
-905.238866341
 10
939.8719946404
 20
-901.3550973574
 10
940.0486476106
 20
-897.4606539751
 10
939.8719946404
 20
-893.5662105929
 10
939.3425199235
 20
-889.6824416093
 10
938.4616747133
 20
-885.8199921651
 10
937.2318733452
 20
-881.9894489658
 10
935.6564866192
 20
-878.2013112641
 10
933.739832561
 20
-874.465962082
 10
931.4871645861
 20
-870.7936397521
 10
928.9046571007
 20
-867.1944098545
 10
925.9993885785
 20
-863.6781376283
 10
922.7793221584
 20
-860.2544609312
 10
919.2532838187
 20
-856.9327638231
 10
915.4309381855
 20
-853.7221508448
 10
911.3227620424
 20
-850.6314220634
 10
906.9400156146
 20
-847.6690489516
 10
902.2947117055
 20
-844.8431511682
 10
897.3995827702
 20
-842.1614743025
 10
892.2680460169
 20
-839.6313686446
 10
886.9141666311
 20
-837.2597690381
 10
881.352619224
 20
-835.0531758727
 10
875.5986476106
 20
-833.0176372669
 10
869.668023027
 20
-831.1587324905
 10
863.577000903
 20
-829.4815566722
 10
857.342276307
 20
-827.9907068346
 10
850.9809381855
 20
-826.6902692932
 10
844.5104225243
 20
-825.5838084571
 10
837.948464557
 20
-824.6743570584
 10
831.3130501543
 20
-823.9644078403
 10
824.6223665258
 20
-823.4559067242
 10
817.8947523703
 20
-823.1502474763
 10
811.1486476106
 20
-823.0482678873
 10
804.4025428509
 20
-823.1502474763
 10
797.6749286954
 20
-823.4559067242
 10
790.9842450669
 20
-823.9644078403
 10
784.3488306642
 20
-824.6743570584
 10
777.7868726969
 20
-825.5838084571
 10
771.3163570356
 20
-826.6902692932
 10
764.9550189142
 20
-827.9907068346
 10
758.7202943181
 20
-829.4815566722
 10
752.6292721941
 20
-831.1587324905
 10
746.6986476106
 20
-833.0176372669
 10
740.9446759971
 20
-835.0531758727
 10
735.3831285901
 20
-837.2597690381
 10
730.0292492043
 20
-839.6313686446
 10
724.8977124509
 20
-842.1614743025
 10
720.0025835156
 20
-844.8431511682
  0
LWPOLYLINE
  5
E8
330
1F
100
AcDbEntity
  8
0
  6
Continuous
 62
     1
370
    25
100
AcDbPolyline
 90
       18
 70
   128
 43
0.0
 10
922.5179656475
 20
-659.6535926434
 10
927.7773175716
 20
-662.546267663
 10
933.0249338251
 20
-665.1455195542
 10
938.249104924
 20
-667.4455483696
 10
943.4381737001
 20
-669.4412218455
 10
948.5805613117
 20
-671.1280868541
 10
953.6647930813
 20
-672.5023793399
 10
958.6795240997
 20
-673.561032719
 10
963.6135645413
 20
-674.3016847219
 10
968.4559046324
 20
-674.7226826641
 10
973.1957392189
 20
-674.8230871348
 10
977.8224918763
 20
-674.6026740922
 10
982.3258385104
 20
-674.0619353641
 10
986.6957303939
 20
-673.20207755
 10
990.9224165893
 20
-672.025019329
 10
994.9964657069
 20
-670.5333871781
 10
998.9087869502
 20
-668.7305095119
 10
1001.2615658425
 20
-667.4511105963
  0
LWPOLYLINE
  5
E9
330
1F
100
AcDbEntity
  8
0
  6
Continuous
 62
     1
370
    25
100
AcDbPolyline
 90
       51
 70
   128
 43
0.0
 10
843.7743654524
 20
-394.6457189464
 10
840.5808954524
 20
-396.6452339951
 10
837.1102501369
 20
-399.2071283788
 10
833.8301828311
 20
-402.0632122254
 10
830.7480126477
 20
-405.207112495
 10
827.8706171136
 20
-408.6318139168
 10
825.2044168233
 20
-412.3296746428
 10
822.7553611123
 20
-416.2924432998
 10
820.5289147815
 20
-420.5112774013
 10
818.5300459032
 20
-424.9767630789
 10
816.7632147355
 20
-429.6789360878
 10
815.2323637696
 20
-434.6073040414
 10
813.9409089326
 20
-439.7508698238
 10
812.8917319653
 20
-445.0981561284
 10
812.0871739917
 20
-450.6372310685
 10
811.5290302952
 20
-456.355734802
 10
811.2185463127
 20
-462.2409071111
 10
811.1564148553
 20
-468.2796158751
 10
811.3427745627
 20
-474.4583863735
 10
811.7772095934
 20
-480.7634313532
 10
812.458750553
 20
-487.1806817935
 10
813.3858766572
 20
-493.6958182994
 10
814.556519125
 20
-500.2943030537
 10
815.9680657955
 20
-506.9614122568
 10
817.6173669559
 20
-513.6822689811
 10
819.5007423706
 20
-520.4418763672
 10
821.6139894924
 20
-527.2251510879
 10
823.9523928409
 20
-534.0169570049
 10
826.5107345236
 20
-540.8021389433
 10
829.28330588
 20
-547.5655565092
 10
832.2639202193
 20
-554.2921178734
 10
835.4459266252
 20
-560.966813447
 10
838.8222247974
 20
-567.5747493745
 10
842.3852808944
 20
-574.1011807668
 10
846.1271443448
 20
-580.5315446035
 10
850.039465588
 20
-586.8514922286
 10
854.1135147056
 20
-593.0469213676
 10
858.340200901
 20
-599.1040075956
 10
862.7100927845
 20
-605.0092351846
 10
867.2134394186
 20
-610.749427263
 10
871.8401920761
 20
-616.3117752175
 10
876.5800266625
 20
-621.683867275
 10
881.4223667536
 20
-626.8537161974
 10
886.3564071952
 20
-631.8097860303
 10
891.3711382137
 20
-636.5410178439
 10
896.4553699833
 20
-641.0368544101
 10
901.5977575948
 20
-645.2872637594
 10
906.7868263709
 20
-649.2827615666
 10
912.0109974699
 20
-653.0144323138
 10
917.2586137233
 20
-656.4739491843
 10
922.5179656475
 20
-659.6535926434
  0
LWPOLYLINE
  5
EA
330
1F
100
AcDbEntity
  8
0
  6
Continuous
 62
     1
370
    25
100
AcDbPolyline
 90
       18
 70
   128
 43
0.0
 10
922.5179656475
 20
-659.6535926434
 10
927.6530633233
 20
-662.7614823334
 10
932.5281940919
 20
-666.0058980076
 10
937.1324796301
 20
-669.3796001061
 10
941.4556459764
 20
-672.8750605801
 10
945.4880464565
 20
-676.4844796907
 10
949.2206832079
 20
-680.1998034124
 10
952.6452272586
 20
-684.0127414052
 10
955.7540371117
 20
-687.9147855135
 10
958.5401757968
 20
-691.8972287511
 10
960.997426349
 20
-695.9511847299
 10
963.1203056817
 20
-700.067607489
 10
964.9040768207
 20
-704.2373116795
 10
966.3447594753
 20
-708.4509930609
 10
967.4391389192
 20
-712.6992492625
 10
968.1847731637
 20
-716.9726007635
 10
968.5799984075
 20
-721.2615120457
 10
968.6486476106
 20
-723.9457314494
  0
LWPOLYLINE
  5
EB
330
1F
100
AcDbEntity
  8
0
  6
Continuous
 62
     1
370
    25
100
AcDbPolyline
 90
       51
 70
   128
 43
0.0
 10
653.6486476106
 20
-723.9457314494
 10
653.7831906646
 20
-720.1883484752
 10
654.2661314269
 20
-715.9024309202
 10
655.0991384274
 20
-711.6344611138
 10
656.2803529018
 20
-707.3939625655
 10
657.8071390988
 20
-703.1903974857
 10
659.6760901613
 20
-699.0331456718
 10
661.8830357287
 20
-694.9314835782
 10
664.4230512425
 20
-690.8945636168
 10
667.2904689348
 20
-686.9313937346
 10
670.4788904756
 20
-683.0508173132
 10
673.9812012496
 20
-679.2614934362
 10
677.7895862321
 20
-675.5718775667
 10
681.895547427
 20
-671.9902026805
 10
686.2899228292
 20
-668.5244608948
 10
690.9629068691
 20
-665.1823856347
 10
695.9040722919
 20
-661.9714343769
 10
701.1023934256
 20
-658.8987720092
 10
706.5462707829
 20
-655.9712548429
 10
712.2235569448
 20
-653.1954153135
 10
718.121583666
 20
-650.5774474044
 10
724.2271901425
 20
-648.1231928256
 10
730.526752379
 20
-645.8381279789
 10
737.0062135887
 20
-643.7273517374
 10
743.65111556
 20
-641.7955740682
 10
750.4466309185
 20
-640.0471055227
 10
757.3775962121
 20
-638.4858476179
 10
764.428545747
 20
-637.1152841308
 10
771.5837460979
 20
-635.9384733243
 10
778.8272312148
 20
-634.9580411235
 10
786.1428380501
 20
-634.176175256
 10
793.5142426243
 20
-633.5946203704
 10
800.9249964515
 20
-633.2146741429
 10
808.3585632422
 20
-633.0371843822
 10
815.7983558021
 20
-633.0625471373
 10
823.2277730448
 20
-633.2907058141
 10
830.6302370355
 20
-633.7211513011
 10
837.9892299824
 20
-634.3529231064
 10
845.2883310948
 20
-635.1846115
 10
852.511253224
 20
-636.2143606597
 10
859.6418792062
 20
-637.4398728127
 10
866.6642978269
 20
-638.858413362
 10
873.562839324
 20
-640.4668169891
 10
880.322110354
 20
-642.2614947165
 10
886.9270283403
 20
-644.2384419164
 10
893.3628551281
 20
-646.3932472467
 10
899.6152298712
 20
-648.721102494
 10
905.6702010769
 20
-651.2168133031
 10
911.5142577367
 20
-653.8748107672
 10
917.1343594751
 20
-656.6891638547
 10
922.5179656475
 20
-659.6535926434
  0
ENDSEC
  0
SECTION
  2
OBJECTS
  0
DICTIONARY
  5
C
330
0
100
AcDbDictionary
281
     1
  3
ACAD_GROUP
350
D
  3
ACAD_LAYOUT
350
1A
  3
ACAD_MLINESTYLE
350
17
  3
ACAD_PLOTSETTINGS
350
19
  3
ACAD_PLOTSTYLENAME
350
E
  3
ACAD_SCALELIST
350
47
  3
DWGPROPS
350
EC
  0
DICTIONARY
  5
D
102
{ACAD_REACTORS
330
C
102
}
330
C
100
AcDbDictionary
281
     1
  0
DICTIONARY
  5
1A
102
{ACAD_REACTORS
330
C
102
}
330
C
100
AcDbDictionary
281
     1
  3
Layout1
350
1E
  3
Layout2
350
26
  3
Model
350
22
  0
DICTIONARY
  5
17
102
{ACAD_REACTORS
330
C
102
}
330
C
100
AcDbDictionary
281
     1
  3
Standard
350
18
  0
DICTIONARY
  5
19
102
{ACAD_REACTORS
330
C
102
}
330
C
100
AcDbDictionary
281
     1
  0
ACDBDICTIONARYWDFLT
  5
E
102
{ACAD_REACTORS
330
C
102
}
330
C
100
AcDbDictionary
281
     1
  3
Normal
350
F
100
AcDbDictionaryWithDefault
340
F
  0
DICTIONARY
  5
47
102
{ACAD_REACTORS
330
C
102
}
330
C
100
AcDbDictionary
281
     1
  3
A0
350
48
  3
A1
350
49
  3
A2
350
4A
  3
A3
350
4B
  3
A4
350
4C
  3
A5
350
4D
  3
A6
350
4E
  3
A7
350
4F
  3
A8
350
50
  3
A9
350
51
  3
B0
350
52
  3
B1
350
53
  3
B2
350
54
  3
B3
350
55
  3
B4
350
56
  3
B5
350
57
  3
B6
350
58
  3
B7
350
59
  3
B8
350
5A
  3
B9
350
5B
  3
C0
350
5C
  3
C1
350
5D
  3
C2
350
5E
  3
C3
350
5F
  3
C4
350
60
  3
C5
350
61
  3
C6
350
62
  3
C7
350
63
  3
C8
350
64
  3
C9
350
65
  3
D0
350
66
  3
D1
350
67
  3
D2
350
68
  0
XRECORD
  5
EC
102
{ACAD_REACTORS
330
C
102
}
330
C
100
AcDbXrecord
280
     1
  1
DWGPROPS COOKIE
  2

  3

  4

  6

  7

  8
b.kav
  9

300
=
301
=
302
=
303
=
304
=
305
=
306
=
307
=
308
=
309
=
 40
0.0
 41
2459935.574440382
 42
2459935.574440567
  1

 90
        0
  0
LAYOUT
  5
1E
102
{ACAD_REACTORS
330
1A
102
}
330
1A
100
AcDbPlotSettings
  1

  2
none_device
  4

  6

 40
0.0
 41
0.0
 42
0.0
 43
0.0
 44
0.0
 45
0.0
 46
0.0
 47
0.0
 48
0.0
 49
0.0
140
0.0
141
0.0
142
1.0
143
1.0
 70
   688
 72
     1
 73
     0
 74
     5
  7

 75
    16
147
1.0
148
0.0
149
0.0
100
AcDbLayout
  1
Layout1
 70
     1
 71
     1
 10
0.0
 20
0.0
 11
420.0
 21
297.0
 12
0.0
 22
0.0
 32
0.0
 14
1.0000000000E+20
 24
1.0000000000E+20
 34
1.0000000000E+20
 15
-1.0000000000E+20
 25
-1.0000000000E+20
 35
-1.0000000000E+20
146
0.0
 13
0.0
 23
0.0
 33
0.0
 16
1.0
 26
0.0
 36
0.0
 17
0.0
 27
1.0
 37
0.0
 76
     0
330
1B
  0
LAYOUT
  5
26
102
{ACAD_REACTORS
330
1A
102
}
330
1A
100
AcDbPlotSettings
  1

  2
none_device
  4

  6

 40
0.0
 41
0.0
 42
0.0
 43
0.0
 44
0.0
 45
0.0
 46
0.0
 47
0.0
 48
0.0
 49
0.0
140
0.0
141
0.0
142
1.0
143
1.0
 70
   688
 72
     1
 73
     0
 74
     5
  7

 75
    16
147
1.0
148
0.0
149
0.0
100
AcDbLayout
  1
Layout2
 70
     1
 71
     2
 10
0.0
 20
0.0
 11
0.0
 21
0.0
 12
0.0
 22
0.0
 32
0.0
 14
0.0
 24
0.0
 34
0.0
 15
0.0
 25
0.0
 35
0.0
146
0.0
 13
0.0
 23
0.0
 33
0.0
 16
1.0
 26
0.0
 36
0.0
 17
0.0
 27
1.0
 37
0.0
 76
     0
330
23
  0
LAYOUT
  5
22
102
{ACAD_REACTORS
330
1A
102
}
330
1A
100
AcDbPlotSettings
  1

  2
none_device
  4
Letter_(8.50_x_11.00_Inches)
  6

 40
6.35
 41
6.35
 42
6.35000508
 43
6.35000508
 44
215.9
 45
279.4
 46
0.0
 47
0.0
 48
0.0
 49
0.0
140
0.0
141
0.0
142
1.0
143
1.0
 70
  1712
 72
     1
 73
     0
 74
     0
  7

 75
     0
147
1.0
148
0.0
149
0.0
100
AcDbLayout
  1
Model
 70
     1
 71
     0
 10
0.0
 20
0.0
 11
279.4
 21
215.9
 12
0.0
 22
0.0
 32
0.0
 14
0.0
 24
0.0
 34
0.0
 15
279.4
 25
215.9
 35
0.0
146
0.0
 13
0.0
 23
0.0
 33
0.0
 16
1.0
 26
0.0
 36
0.0
 17
0.0
 27
1.0
 37
0.0
 76
     0
330
1F
331
29
  0
MLINESTYLE
  5
18
102
{ACAD_REACTORS
330
17
102
}
330
17
100
AcDbMlineStyle
  2
Standard
 70
     0
  3

 62
   256
 51
90.0
 52
90.0
 71
     2
 49
0.5
 62
   256
  6
BYLAYER
 49
-0.5
 62
   256
  6
BYLAYER
  0
ACDBPLACEHOLDER
  5
F
102
{ACAD_REACTORS
330
E
102
}
330
E
  0
SCALE
  5
48
102
{ACAD_REACTORS
330
47
102
}
330
47
100
AcDbScale
 70
     0
300
1:1
140
1.0
141
1.0
290
     1
  0
SCALE
  5
49
102
{ACAD_REACTORS
330
47
102
}
330
47
100
AcDbScale
 70
     0
300
1:2
140
1.0
141
2.0
290
     0
  0
SCALE
  5
4A
102
{ACAD_REACTORS
330
47
102
}
330
47
100
AcDbScale
 70
     0
300
1:4
140
1.0
141
4.0
290
     0
  0
SCALE
  5
4B
102
{ACAD_REACTORS
330
47
102
}
330
47
100
AcDbScale
 70
     0
300
1:5
140
1.0
141
5.0
290
     0
  0
SCALE
  5
4C
102
{ACAD_REACTORS
330
47
102
}
330
47
100
AcDbScale
 70
     0
300
1:8
140
1.0
141
8.0
290
     0
  0
SCALE
  5
4D
102
{ACAD_REACTORS
330
47
102
}
330
47
100
AcDbScale
 70
     0
300
1:10
140
1.0
141
10.0
290
     0
  0
SCALE
  5
4E
102
{ACAD_REACTORS
330
47
102
}
330
47
100
AcDbScale
 70
     0
300
1:16
140
1.0
141
16.0
290
     0
  0
SCALE
  5
4F
102
{ACAD_REACTORS
330
47
102
}
330
47
100
AcDbScale
 70
     0
300
1:20
140
1.0
141
20.0
290
     0
  0
SCALE
  5
50
102
{ACAD_REACTORS
330
47
102
}
330
47
100
AcDbScale
 70
     0
300
1:30
140
1.0
141
30.0
290
     0
  0
SCALE
  5
51
102
{ACAD_REACTORS
330
47
102
}
330
47
100
AcDbScale
 70
     0
300
1:40
140
1.0
141
40.0
290
     0
  0
SCALE
  5
52
102
{ACAD_REACTORS
330
47
102
}
330
47
100
AcDbScale
 70
     0
300
1:50
140
1.0
141
50.0
290
     0
  0
SCALE
  5
53
102
{ACAD_REACTORS
330
47
102
}
330
47
100
AcDbScale
 70
     0
300
1:100
140
1.0
141
100.0
290
     0
  0
SCALE
  5
54
102
{ACAD_REACTORS
330
47
102
}
330
47
100
AcDbScale
 70
     0
300
2:1
140
2.0
141
1.0
290
     0
  0
SCALE
  5
55
102
{ACAD_REACTORS
330
47
102
}
330
47
100
AcDbScale
 70
     0
300
4:1
140
4.0
141
1.0
290
     0
  0
SCALE
  5
56
102
{ACAD_REACTORS
330
47
102
}
330
47
100
AcDbScale
 70
     0
300
8:1
140
8.0
141
1.0
290
     0
  0
SCALE
  5
57
102
{ACAD_REACTORS
330
47
102
}
330
47
100
AcDbScale
 70
     0
300
10:1
140
10.0
141
1.0
290
     0
  0
SCALE
  5
58
102
{ACAD_REACTORS
330
47
102
}
330
47
100
AcDbScale
 70
     0
300
100:1
140
100.0
141
1.0
290
     0
  0
SCALE
  5
59
102
{ACAD_REACTORS
330
47
102
}
330
47
100
AcDbScale
 70
     0
300
1/128" = 1'-0"
140
0.0078125
141
12.0
290
     0
  0
SCALE
  5
5A
102
{ACAD_REACTORS
330
47
102
}
330
47
100
AcDbScale
 70
     0
300
1/64" = 1'-0"
140
0.015625
141
12.0
290
     0
  0
SCALE
  5
5B
102
{ACAD_REACTORS
330
47
102
}
330
47
100
AcDbScale
 70
     0
300
1/32" = 1'-0"
140
0.03125
141
12.0
290
     0
  0
SCALE
  5
5C
102
{ACAD_REACTORS
330
47
102
}
330
47
100
AcDbScale
 70
     0
300
1/16" = 1'-0"
140
0.0625
141
12.0
290
     0
  0
SCALE
  5
5D
102
{ACAD_REACTORS
330
47
102
}
330
47
100
AcDbScale
 70
     0
300
3/32" = 1'-0"
140
0.09375
141
12.0
290
     0
  0
SCALE
  5
5E
102
{ACAD_REACTORS
330
47
102
}
330
47
100
AcDbScale
 70
     0
300
1/8" = 1'-0"
140
0.125
141
12.0
290
     0
  0
SCALE
  5
5F
102
{ACAD_REACTORS
330
47
102
}
330
47
100
AcDbScale
 70
     0
300
3/16" = 1'-0"
140
0.1875
141
12.0
290
     0
  0
SCALE
  5
60
102
{ACAD_REACTORS
330
47
102
}
330
47
100
AcDbScale
 70
     0
300
1/4" = 1'-0"
140
0.25
141
12.0
290
     0
  0
SCALE
  5
61
102
{ACAD_REACTORS
330
47
102
}
330
47
100
AcDbScale
 70
     0
300
3/8" = 1'-0"
140
0.375
141
12.0
290
     0
  0
SCALE
  5
62
102
{ACAD_REACTORS
330
47
102
}
330
47
100
AcDbScale
 70
     0
300
1/2" = 1'-0"
140
0.5
141
12.0
290
     0
  0
SCALE
  5
63
102
{ACAD_REACTORS
330
47
102
}
330
47
100
AcDbScale
 70
     0
300
3/4" = 1'-0"
140
0.75
141
12.0
290
     0
  0
SCALE
  5
64
102
{ACAD_REACTORS
330
47
102
}
330
47
100
AcDbScale
 70
     0
300
1" = 1'-0"
140
1.0
141
12.0
290
     0
  0
SCALE
  5
65
102
{ACAD_REACTORS
330
47
102
}
330
47
100
AcDbScale
 70
     0
300
1-1/2" = 1'-0"
140
1.5
141
12.0
290
     0
  0
SCALE
  5
66
102
{ACAD_REACTORS
330
47
102
}
330
47
100
AcDbScale
 70
     0
300
3" = 1'-0"
140
3.0
141
12.0
290
     0
  0
SCALE
  5
67
102
{ACAD_REACTORS
330
47
102
}
330
47
100
AcDbScale
 70
     0
300
6" = 1'-0"
140
6.0
141
12.0
290
     0
  0
SCALE
  5
68
102
{ACAD_REACTORS
330
47
102
}
330
47
100
AcDbScale
 70
     0
300
1'-0" = 1'-0"
140
12.0
141
12.0
290
     0
  0
ENDSEC
  0
EOF
